  0
SECTION
  2
HEADER
  9
$ACADVER
  1
AC1009
  9
$INSBASE
 10
0.0
 20
0.0
 30
0.0
  9
$EXTMIN
 10
111.576417
 20
60.649409
 30
0.0
  9
$EXTMAX
 10
428.295105
 20
385.274307
 30
0.0
  9
$LIMMIN
 10
0.0
 20
0.0
  9
$LIMMAX
 10
550.0
 20
500.0
  9
$ORTHOMODE
 70
     1
  9
$REGENMODE
 70
     1
  9
$FILLMODE
 70
     1
  9
$QTEXTMODE
 70
     0
  9
$MIRRTEXT
 70
     1
  9
$DRAGMODE
 70
     2
  9
$LTSCALE
 40
4.0
  9
$OSMODE
 70
     0
  9
$ATTMODE
 70
     1
  9
$TEXTSIZE
 40
5.0
  9
$TRACEWID
 40
0.05
  9
$TEXTSTYLE
  7
ROMANS
  9
$CLAYER
  8
0
  9
$CELTYPE
  6
CONTINUOUS
  9
$CECOLOR
 62
   256
  9
$DIMSCALE
 40
1.0
  9
$DIMASZ
 40
5.0
  9
$DIMEXO
 40
0.0625
  9
$DIMDLI
 40
0.38
  9
$DIMRND
 40
0.0
  9
$DIMDLE
 40
0.0
  9
$DIMEXE
 40
0.18
  9
$DIMTP
 40
0.0
  9
$DIMTM
 40
0.0
  9
$DIMTXT
 40
4.0
  9
$DIMCEN
 40
0.09
  9
$DIMTSZ
 40
0.0
  9
$DIMTOL
 70
     0
  9
$DIMLIM
 70
     0
  9
$DIMTIH
 70
     1
  9
$DIMTOH
 70
     1
  9
$DIMSE1
 70
     0
  9
$DIMSE2
 70
     0
  9
$DIMTAD
 70
     0
  9
$DIMZIN
 70
     0
  9
$DIMBLK
  1

  9
$DIMASO
 70
     1
  9
$DIMSHO
 70
     0
  9
$DIMPOST
  1

  9
$DIMAPOST
  1

  9
$DIMALT
 70
     0
  9
$DIMALTD
 70
     2
  9
$DIMALTF
 40
25.4
  9
$DIMLFAC
 40
1.0
  9
$DIMTOFL
 70
     0
  9
$DIMTVP
 40
0.0
  9
$DIMTIX
 70
     0
  9
$DIMSOXD
 70
     0
  9
$DIMSAH
 70
     0
  9
$DIMBLK1
  1

  9
$DIMBLK2
  1

  9
$DIMSTYLE
  2
*UNNAMED
  9
$DIMCLRD
 70
     0
  9
$DIMCLRE
 70
     0
  9
$DIMCLRT
 70
     0
  9
$DIMTFAC
 40
1.0
  9
$DIMGAP
 40
0.09
  9
$LUNITS
 70
     2
  9
$LUPREC
 70
     4
  9
$AXISMODE
 70
     0
  9
$AXISUNIT
 10
0.0
 20
0.0
  9
$SKETCHINC
 40
0.1
  9
$FILLETRAD
 40
0.0
  9
$AUNITS
 70
     0
  9
$AUPREC
 70
     0
  9
$MENU
  1
acad
  9
$ELEVATION
 40
0.0
  9
$PELEVATION
 40
0.0
  9
$THICKNESS
 40
0.0
  9
$LIMCHECK
 70
     0
  9
$BLIPMODE
 70
     0
  9
$CHAMFERA
 40
0.0
  9
$CHAMFERB
 40
0.0
  9
$SKPOLY
 70
     0
  9
$TDCREATE
 40
2449658.438368981
  9
$TDUPDATE
 40
2449721.657330902
  9
$TDINDWG
 40
0.2230471065
  9
$TDUSRTIMER
 40
0.2230471065
  9
$USRTIMER
 70
     1
  9
$ANGBASE
 50
0.0
  9
$ANGDIR
 70
     0
  9
$PDMODE
 70
     0
  9
$PDSIZE
 40
0.0
  9
$PLINEWID
 40
0.0
  9
$COORDS
 70
     0
  9
$SPLFRAME
 70
     0
  9
$SPLINETYPE
 70
     6
  9
$SPLINESEGS
 70
     8
  9
$ATTDIA
 70
     1
  9
$ATTREQ
 70
     1
  9
$HANDLING
 70
     0
  9
$HANDSEED
  5
0
  9
$SURFTAB1
 70
     6
  9
$SURFTAB2
 70
     6
  9
$SURFTYPE
 70
     6
  9
$SURFU
 70
     6
  9
$SURFV
 70
     6
  9
$UCSNAME
  2

  9
$UCSORG
 10
0.0
 20
0.0
 30
0.0
  9
$UCSXDIR
 10
1.0
 20
0.0
 30
0.0
  9
$UCSYDIR
 10
0.0
 20
1.0
 30
0.0
  9
$PUCSNAME
  2

  9
$PUCSORG
 10
0.0
 20
0.0
 30
0.0
  9
$PUCSXDIR
 10
1.0
 20
0.0
 30
0.0
  9
$PUCSYDIR
 10
0.0
 20
1.0
 30
0.0
  9
$USERI1
 70
     0
  9
$USERI2
 70
     0
  9
$USERI3
 70
     0
  9
$USERI4
 70
     0
  9
$USERI5
 70
     0
  9
$USERR1
 40
0.0
  9
$USERR2
 40
0.0
  9
$USERR3
 40
0.0
  9
$USERR4
 40
0.0
  9
$USERR5
 40
0.0
  9
$WORLDVIEW
 70
     1
  9
$SHADEDGE
 70
     3
  9
$SHADEDIF
 70
    70
  9
$TILEMODE
 70
     1
  9
$MAXACTVP
 70
    16
  9
$PINSBASE
 10
0.0
 20
0.0
 30
0.0
  9
$PLIMCHECK
 70
     0
  9
$PEXTMIN
 10
1.000000E+20
 20
1.000000E+20
 30
1.000000E+20
  9
$PEXTMAX
 10
-1.000000E+20
 20
-1.000000E+20
 30
-1.000000E+20
  9
$PLIMMIN
 10
0.0
 20
0.0
  9
$PLIMMAX
 10
12.0
 20
9.0
  9
$UNITMODE
 70
     1
  9
$VISRETAIN
 70
     0
  0
ENDSEC
  0
SECTION
  2
TABLES
  0
TABLE
  2
VPORT
 70
     2
  0
VPORT
  2
*ACTIVE
 70
     0
 10
0.0
 20
0.0
 11
1.0
 21
1.0
 12
332.637654
 22
224.860236
 13
0.0
 23
0.0
 14
1.0
 24
1.0
 15
0.0
 25
0.0
 16
0.0
 26
0.0
 36
1.0
 17
0.0
 27
0.0
 37
0.0
 40
328.235428
 41
1.346968
 42
50.0
 43
0.0
 44
0.0
 50
0.0
 51
0.0
 71
     0
 72
   100
 73
     1
 74
     0
 75
     0
 76
     0
 77
     0
 78
     1
  0
ENDTAB
  0
TABLE
  2
LTYPE
 70
     3
  0
LTYPE
  2
CONTINUOUS
 70
    64
  3
Solid line
 72
    65
 73
     0
 40
0.0
  0
LTYPE
  2
DASHED
 70
    64
  3
__ __ __ __ __ __ __ __ __ __ __ __ __ __ __
 72
    65
 73
     2
 40
0.75
 49
0.5
 49
-0.25
  0
LTYPE
  2
CENTER
 70
    64
  3
____ _ ____ _ ____ _ ____ _ ____ _ ____ _ ____
 72
    65
 73
     4
 40
2.0
 49
1.25
 49
-0.25
 49
0.25
 49
-0.25
  0
ENDTAB
  0
TABLE
  2
LAYER
 70
     5
  0
LAYER
  2
0
 70
    64
 62
     7
  6
CONTINUOUS
  0
LAYER
  2
RIGHTSIDE
 70
    64
 62
     1
  6
CONTINUOUS
  0
LAYER
  2
PLANVIEW
 70
    64
 62
     2
  6
CONTINUOUS
  0
LAYER
  2
FRONTVIEW
 70
    64
 62
     3
  6
CONTINUOUS
  0
LAYER
  2
CAPTIONS
 70
    64
 62
     4
  6
CONTINUOUS
  0
ENDTAB
  0
TABLE
  2
STYLE
 70
     4
  0
STYLE
  2
STANDARD
 70
    64
 40
0.0
 41
1.0
 50
0.0
 71
     0
 42
5.5385
  3
txt
  4

  0
STYLE
  2
ROMANS
 70
    64
 40
0.0
 41
1.0
 50
0.0
 71
     0
 42
5.0
  3
ROMANS
  4

  0
STYLE
  2
ROMANT
 70
    64
 40
0.0
 41
1.0
 50
0.0
 71
     0
 42
5.5385
  3
ROMANT
  4

  0
STYLE
  2
ROMAND
 70
    64
 40
0.0
 41
1.0
 50
0.0
 71
     0
 42
2.0
  3
ROMAND
  4

  0
ENDTAB
  0
TABLE
  2
VIEW
 70
     0
  0
ENDTAB
  0
TABLE
  2
UCS
 70
     0
  0
ENDTAB
  0
TABLE
  2
APPID
 70
     1
  0
APPID
  2
ACAD
 70
    64
  0
ENDTAB
  0
TABLE
  2
DIMSTYLE
 70
     0
  0
ENDTAB
  0
ENDSEC
  0
SECTION
  2
BLOCKS
  0
BLOCK
  8
0
  2
GETDAT
 70
    66
 10
0.0
 20
0.0
 30
0.0
  1
GETDAT
  3
GETDAT
  0
ATTDEF
  8
0
 10
0.0
 20
0.0
 30
0.0
 40
1.0
  1
DIMDIAG
  3
DRAWING NAME.(10 CHARS): 
  2
DWGNAM
 70
     1
  0
ATTDEF
  8
0
 10
0.0
 20
0.0
 30
0.0
 40
1.0
  1
B
  3
DRAWING SIZE...(1 CHAR): 
  2
DWGSIZ
 70
     1
  0
ATTDEF
  8
0
 10
0.0
 20
0.0
 30
0.0
 40
1.0
  1
00
  3
REVISION......(2 CHARS): 
  2
DWGREV
 70
     1
  0
ATTDEF
  8
0
 10
0.0
 20
0.0
 30
0.0
 40
1.0
  1
01
  3
SHEET NUMBER..(2 CHARS): 
  2
DWGSHT
 70
     1
  0
ATTDEF
  8
0
 10
0.0
 20
0.0
 30
0.0
 40
1.0
  1
01
  3
OF............(2 CHARS): 
  2
DWGOF
 70
     1
  0
ATTDEF
  8
0
 10
0.0
 20
0.0
 30
0.0
 40
1.0
  1
 
  3
DISTRIBUTION..(2 CHARS): 
  2
DWGDIST
 70
     1
  0
ATTDEF
  8
0
 10
0.0
 20
0.0
 30
0.0
 40
1.0
  1
01
  3
QUANTITY......(2 CHARS): 
  2
DWGQUAN
 70
     1
  0
ATTDEF
  8
0
 10
0.0
 20
0.0
 30
0.0
 40
1.0
  1
 
  3
DESCRIPTION..(31 CHARS): 
  2
DWGDESC
 70
     1
  0
ATTDEF
  8
0
 10
0.0
 20
0.0
 30
0.0
 40
1.0
  1
 
  3
YOUR NAME....(17 CHARS): 
  2
DRWN
 70
     1
  0
ATTDEF
  8
0
 10
0.0
 20
0.0
 30
0.0
 40
1.0
  1
10/14/92
  3
TODAY'S DATE..(8 CHARS): 
  2
DATE
 70
     1
  0
ATTDEF
  8
0
 10
0.0
 20
0.0
 30
0.0
 40
1.0
  1
01 
  3
FILE..........(3 CHARS): 
  2
FILE
 70
     1
  0
ENDBLK
  8
0
  0
ENDSEC
  0
SECTION
  2
ENTITIES
  0
POLYLINE
  8
CAPTIONS
 66
     1
 10
0.0
 20
0.0
 30
0.0
 70
     1
 40
0.5
 41
0.5
  0
VERTEX
  8
CAPTIONS
 10
329.436764
 20
186.780624
 30
0.0
 42
1.0
  0
VERTEX
  8
CAPTIONS
 10
329.936764
 20
186.780624
 30
0.0
 42
1.0
  0
SEQEND
  8
CAPTIONS
  0
CIRCLE
  8
CAPTIONS
 10
329.686764
 20
186.780624
 30
0.0
 40
2.799891
  0
TEXT
  8
CAPTIONS
 10
334.603867
 20
169.516781
 30
0.0
 40
4.597
  1
jurisdictional requirements.
  7
ROMANS
  0
TEXT
  8
CAPTIONS
 10
334.603867
 20
176.959543
 30
0.0
 40
4.597
  1
clearance consult local
  7
ROMANS
  0
TEXT
  8
CAPTIONS
 10
334.603867
 20
184.402305
 30
0.0
 40
4.597
  1
For minimum aisle 
  7
ROMANS
  0
TEXT
  8
CAPTIONS
 10
237.60478
 20
362.817227
 30
0.0
 40
5.0
  1
CB 15 & 20 HP 
  7
ROMAND
  0
ARC
  8
CAPTIONS
 10
270.054473
 20
66.051368
 30
0.0
 40
13.097472
 50
73.493764
 51
74.4082
  0
ARC
  8
CAPTIONS
 10
270.982462
 20
69.183058
 30
0.0
 40
9.831184
 50
54.419527
 51
73.493591
  0
ARC
  8
CAPTIONS
 10
272.401517
 20
71.166597
 30
0.0
 40
7.392302
 50
30.070114
 51
54.419544
  0
ARC
  8
CAPTIONS
 10
274.570731
 20
72.422531
 30
0.0
 40
4.885738
 50
359.999979
 51
30.070151
  0
ARC
  8
CAPTIONS
 10
275.573943
 20
72.089288
 30
0.0
 40
3.896801
 50
329.929866
 51
4.905749
  0
ARC
  8
CAPTIONS
 10
272.099121
 20
74.101148
 30
0.0
 40
7.912018
 50
305.580464
 51
329.929893
  0
ARC
  8
CAPTIONS
 10
270.982462
 20
75.662002
 30
0.0
 40
9.831184
 50
286.506409
 51
305.580473
  0
ARC
  8
CAPTIONS
 10
270.054486
 20
78.790157
 30
0.0
 40
13.097364
 50
270.000045
 51
286.506319
  0
ARC
  8
CAPTIONS
 10
267.707501
 20
73.678489
 30
0.0
 40
7.392338
 50
210.070176
 51
227.741303
  0
ARC
  8
CAPTIONS
 10
265.538258
 20
72.422528
 30
0.0
 40
4.885736
 50
179.999984
 51
210.070156
  0
ARC
  8
CAPTIONS
 10
265.53826
 20
72.422531
 30
0.0
 40
4.885738
 50
149.929849
 51
180.000021
  0
ARC
  8
CAPTIONS
 10
267.707475
 20
71.166595
 30
0.0
 40
7.392304
 50
125.580444
 51
149.929874
  0
ARC
  8
CAPTIONS
 10
269.12653
 20
69.183058
 30
0.0
 40
9.831184
 50
106.506409
 51
125.580473
  0
ARC
  8
CAPTIONS
 10
270.054515
 20
66.051448
 30
0.0
 40
13.097395
 50
94.417361
 51
106.506318
  0
ARC
  8
CAPTIONS
 10
270.054506
 20
78.790157
 30
0.0
 40
13.097364
 50
253.493681
 51
269.999955
  0
ARC
  8
CAPTIONS
 10
269.126487
 20
75.658486
 30
0.0
 40
9.831085
 50
251.627947
 51
253.493685
  0
ARC
  8
CAPTIONS
 10
270.687495
 20
83.429035
 30
0.0
 40
0.723632
 50
26.058138
 51
90.000027
  0
ARC
  8
CAPTIONS
 10
260.061845
 20
78.233175
 30
0.0
 40
12.551623
 50
19.796937
 51
26.058266
  0
ARC
  8
CAPTIONS
 10
302.893697
 20
73.862066
 30
0.0
 40
34.57041
 50
168.549831
 51
171.020329
  0
ARC
  8
CAPTIONS
 10
281.313337
 20
78.233102
 30
0.0
 40
12.551829
 50
153.941824
 51
168.549851
  0
ARC
  8
CAPTIONS
 10
270.687494
 20
83.429034
 30
0.0
 40
0.723632
 50
89.999937
 51
153.941826
  0
ARC
  8
CAPTIONS
 10
242.954979
 20
70.127004
 30
0.0
 40
30.005881
 50
348.549808
 51
352.045725
  0
ARC
  8
CAPTIONS
 10
260.061655
 20
66.662091
 30
0.0
 40
12.551828
 50
333.941804
 51
348.54983
  0
ARC
  8
CAPTIONS
 10
270.687495
 20
61.466154
 30
0.0
 40
0.723632
 50
270.00003
 51
333.941919
  0
ARC
  8
CAPTIONS
 10
270.687495
 20
61.466155
 30
0.0
 40
0.723632
 50
206.058117
 51
270.000006
  0
ARC
  8
CAPTIONS
 10
281.313334
 20
66.662087
 30
0.0
 40
12.551827
 50
191.450154
 51
206.058181
  0
ARC
  8
CAPTIONS
 10
298.421617
 20
70.127272
 30
0.0
 40
30.007509
 50
188.358819
 51
191.450083
  0
ARC
  8
CAPTIONS
 10
243.029945
 20
29.569447
 30
0.0
 40
52.738673
 50
47.178359
 51
48.173695
  0
ARC
  8
CAPTIONS
 10
266.256535
 20
54.632887
 30
0.0
 40
18.567771
 50
35.590662
 51
47.17836
  0
ARC
  8
CAPTIONS
 10
280.884557
 20
65.09849
 30
0.0
 40
0.579453
 50
325.888644
 51
35.590677
  0
ARC
  8
CAPTIONS
 10
292.217353
 20
110.12739
 30
0.0
 40
45.643056
 50
227.178319
 51
228.469064
  0
ARC
  8
CAPTIONS
 10
273.813756
 20
90.268415
 30
0.0
 40
18.567768
 50
215.590671
 51
227.178369
  0
ARC
  8
CAPTIONS
 10
259.185739
 20
79.799386
 30
0.0
 40
0.579453
 50
145.888644
 51
215.590677
  0
ARC
  8
CAPTIONS
 10
259.185739
 20
79.799386
 30
0.0
 40
0.579454
 50
76.186623
 51
145.888656
  0
ARC
  8
CAPTIONS
 10
254.890853
 20
62.331321
 30
0.0
 40
18.567765
 50
64.598944
 51
76.186642
  0
ARC
  8
CAPTIONS
 10
243.277609
 20
37.874902
 30
0.0
 40
45.64144
 50
61.736217
 51
64.599024
  0
ARC
  8
CAPTIONS
 10
280.884556
 20
65.09849
 30
0.0
 40
0.579454
 50
256.186623
 51
325.888656
  0
ARC
  8
CAPTIONS
 10
285.179442
 20
82.566555
 30
0.0
 40
18.567765
 50
244.598944
 51
256.186642
  0
ARC
  8
CAPTIONS
 10
296.793578
 20
107.028151
 30
0.0
 40
45.643404
 50
241.807185
 51
244.598955
  0
ARC
  8
CAPTIONS
 10
259.258384
 20
65.061867
 30
0.0
 40
0.510671
 50
142.874757
 51
214.376124
  0
ARC
  8
CAPTIONS
 10
275.114473
 20
53.062417
 30
0.0
 40
20.397466
 50
132.266064
 51
142.874701
  0
ARC
  8
CAPTIONS
 10
295.303764
 20
30.848214
 30
0.0
 40
50.415431
 50
131.286278
 51
132.26603
  0
ARC
  8
CAPTIONS
 10
236.91712
 20
118.111618
 30
0.0
 40
58.293083
 50
296.485995
 51
298.153044
  0
ARC
  8
CAPTIONS
 10
253.817773
 20
84.189971
 30
0.0
 40
20.397466
 50
285.877352
 51
296.485989
  0
ARC
  8
CAPTIONS
 10
259.258384
 20
65.061866
 30
0.0
 40
0.51067
 50
214.375979
 51
285.877346
  0
ARC
  8
CAPTIONS
 10
299.903515
 20
33.990255
 30
0.0
 40
50.419304
 50
116.486045
 51
119.066308
  0
ARC
  8
CAPTIONS
 10
286.514368
 20
60.861084
 30
0.0
 40
20.397468
 50
105.877365
 51
116.486002
  0
ARC
  8
CAPTIONS
 10
281.073753
 20
79.989189
 30
0.0
 40
0.510671
 50
34.376009
 51
105.877376
  0
ARC
  8
CAPTIONS
 10
281.073753
 20
79.989189
 30
0.0
 40
0.510671
 50
322.87467
 51
34.376037
  0
ARC
  8
CAPTIONS
 10
265.217664
 20
91.992064
 30
0.0
 40
20.397466
 50
312.266064
 51
322.874701
  0
ARC
  8
CAPTIONS
 10
245.024389
 20
114.210651
 30
0.0
 40
50.421355
 50
310.99866
 51
312.26603
  0
ARC
  8
CAPTIONS
 10
254.895024
 20
72.489165
 30
0.0
 40
0.556231
 50
107.770486
 51
179.999953
  0
ARC
  8
CAPTIONS
 10
262.176169
 20
49.77083
 30
0.0
 40
24.41284
 50
97.562078
 51
107.770471
  0
ARC
  8
CAPTIONS
 10
266.919162
 20
14.043188
 30
0.0
 40
60.453934
 50
95.609002
 51
97.562053
  0
ARC
  8
CAPTIONS
 10
268.164357
 20
140.314677
 30
0.0
 40
69.915761
 50
262.437931
 51
263.989935
  0
ARC
  8
CAPTIONS
 10
262.176169
 20
95.2075
 30
0.0
 40
24.41284
 50
252.229529
 51
262.437922
  0
ARC
  8
CAPTIONS
 10
254.895025
 20
72.489166
 30
0.0
 40
0.556232
 50
180.000001
 51
252.229468
  0
ARC
  8
CAPTIONS
 10
273.337474
 20
14.043527
 30
0.0
 40
60.453592
 50
82.437943
 51
84.316515
  0
ARC
  8
CAPTIONS
 10
278.080425
 20
49.770835
 30
0.0
 40
24.412836
 50
72.229526
 51
82.437919
  0
ARC
  8
CAPTIONS
 10
285.361571
 20
72.489165
 30
0.0
 40
0.556231
 50
0.000047
 51
72.229514
  0
ARC
  8
CAPTIONS
 10
285.36157
 20
72.489166
 30
0.0
 40
0.556232
 50
287.770532
 51
359.999999
  0
ARC
  8
CAPTIONS
 10
278.080425
 20
95.207496
 30
0.0
 40
24.412836
 50
277.562081
 51
287.770474
  0
ARC
  8
CAPTIONS
 10
273.337515
 20
130.934584
 30
0.0
 40
60.45337
 50
275.76689
 51
277.562045
  0
TEXT
  8
CAPTIONS
 10
163.115779
 20
376.274307
 30
0.0
 40
9.0
  1
Cleaver-Brooks Layout Guide
  7
ROMAND
  0
LINE
  8
CAPTIONS
 10
269.441653
 20
66.579414
 30
0.0
 11
269.237016
 21
65.727452
 31
0.0
  0
LINE
  8
CAPTIONS
 10
271.399054
 20
67.427328
 30
0.0
 11
271.060957
 21
65.671091
 31
0.0
  0
LINE
  8
CAPTIONS
 10
266.994903
 20
66.415
 30
0.0
 11
266.932622
 21
66.071225
 31
0.0
  0
LINE
  8
CAPTIONS
 10
269.717468
 20
66.679993
 30
0.0
 11
266.994903
 21
66.418426
 31
0.0
  0
LINE
  8
CAPTIONS
 10
271.292286
 20
67.427328
 30
0.0
 11
269.717468
 21
66.679993
 31
0.0
  0
LINE
  8
CAPTIONS
 10
272.946847
 20
68.383917
 30
0.0
 11
271.292286
 21
67.427328
 31
0.0
  0
LINE
  8
CAPTIONS
 10
272.946847
 20
68.383917
 30
0.0
 11
277.60935
 21
68.383917
 31
0.0
  0
LINE
  8
CAPTIONS
 10
269.478267
 20
72.375061
 30
0.0
 11
260.668942
 21
72.375061
 31
0.0
  0
LINE
  8
CAPTIONS
 10
269.286234
 20
70.568445
 30
0.0
 11
261.015935
 21
70.568445
 31
0.0
  0
LINE
  8
CAPTIONS
 10
263.258049
 20
70.543716
 30
0.0
 11
263.827474
 21
68.52591
 31
0.0
  0
LINE
  8
CAPTIONS
 10
262.884363
 20
72.374687
 30
0.0
 11
263.258049
 21
70.543716
 31
0.0
  0
LINE
  8
CAPTIONS
 10
263.329227
 20
74.310284
 30
0.0
 11
262.884363
 21
72.374687
 31
0.0
  0
LINE
  8
CAPTIONS
 10
264.334619
 20
76.754069
 30
0.0
 11
263.329227
 21
74.310284
 31
0.0
  0
LINE
  8
CAPTIONS
 10
267.10821
 20
78.813151
 30
0.0
 11
264.334619
 21
76.754069
 31
0.0
  0
LINE
  8
CAPTIONS
 10
265.535751
 20
70.543716
 30
0.0
 11
266.007306
 21
69.108832
 31
0.0
  0
LINE
  8
CAPTIONS
 10
265.286627
 20
72.374687
 30
0.0
 11
265.535751
 21
70.543716
 31
0.0
  0
LINE
  8
CAPTIONS
 10
265.571339
 20
74.310284
 30
0.0
 11
265.286627
 21
72.374687
 31
0.0
  0
LINE
  8
CAPTIONS
 10
266.105176
 20
76.754069
 30
0.0
 11
265.571339
 21
74.310284
 31
0.0
  0
LINE
  8
CAPTIONS
 10
267.748415
 20
78.944224
 30
0.0
 11
266.105176
 21
76.754069
 31
0.0
  0
LINE
  8
CAPTIONS
 10
267.751171
 20
72.374687
 30
0.0
 11
268.062576
 21
69.803854
 31
0.0
  0
LINE
  8
CAPTIONS
 10
268.180303
 20
76.528284
 30
0.0
 11
267.751171
 21
72.374687
 31
0.0
  0
LINE
  8
CAPTIONS
 10
269.201438
 20
74.310287
 30
0.0
 11
261.051525
 21
74.310287
 31
0.0
  0
LINE
  8
CAPTIONS
 10
268.07504
 20
76.762904
 30
0.0
 11
262.877622
 21
76.762904
 31
0.0
  0
LINE
  8
CAPTIONS
 10
274.904579
 20
70.424142
 30
0.0
 11
279.086297
 21
70.424142
 31
0.0
  0
LINE
  8
CAPTIONS
 10
273.045048
 20
69.228405
 30
0.0
 11
274.904579
 21
70.424142
 31
0.0
  0
LINE
  8
CAPTIONS
 10
272.671363
 20
66.014865
 30
0.0
 11
273.045048
 21
69.228405
 31
0.0
  0
LINE
  8
CAPTIONS
 10
272.617126
 20
72.694623
 30
0.0
 11
275.150776
 21
72.351424
 31
0.0
  0
LINE
  8
CAPTIONS
 10
274.388537
 20
68.406337
 30
0.0
 11
273.801316
 21
66.231593
 31
0.0
  0
LINE
  8
CAPTIONS
 10
276.722549
 20
68.452019
 30
0.0
 11
276.274759
 21
67.375015
 31
0.0
  0
LINE
  8
CAPTIONS
 10
277.256386
 20
70.581924
 30
0.0
 11
276.722549
 21
68.452019
 31
0.0
  0
LINE
  8
CAPTIONS
 10
277.487715
 20
72.420369
 30
0.0
 11
277.256386
 21
70.581924
 31
0.0
  0
LINE
  8
CAPTIONS
 10
276.57139
 20
76.653094
 30
0.0
 11
276.301451
 21
77.404251
 31
0.0
  0
LINE
  8
CAPTIONS
 10
276.57139
 20
76.653094
 30
0.0
 11
277.191178
 21
74.257971
 31
0.0
  0
LINE
  8
CAPTIONS
 10
275.171497
 20
72.352266
 30
0.0
 11
279.442188
 21
72.352266
 31
0.0
  0
LINE
  8
CAPTIONS
 10
273.739036
 20
76.68681
 30
0.0
 11
277.262356
 21
76.68681
 31
0.0
  0
LINE
  8
CAPTIONS
 10
275.030246
 20
74.303106
 30
0.0
 11
275.150776
 21
72.351424
 31
0.0
  0
LINE
  8
CAPTIONS
 10
274.410458
 20
76.698229
 30
0.0
 11
275.030246
 21
74.303106
 31
0.0
  0
LINE
  8
CAPTIONS
 10
274.922374
 20
70.536242
 30
0.0
 11
274.388537
 21
68.406337
 31
0.0
  0
LINE
  8
CAPTIONS
 10
275.153702
 20
72.374687
 30
0.0
 11
274.922374
 21
70.536242
 31
0.0
  0
LINE
  8
CAPTIONS
 10
277.191178
 20
74.257971
 30
0.0
 11
277.484788
 21
72.397106
 31
0.0
  0
LINE
  8
CAPTIONS
 10
274.415229
 20
76.68681
 30
0.0
 11
273.587782
 21
78.667247
 31
0.0
  0
LINE
  8
CAPTIONS
 10
279.079754
 20
74.303793
 30
0.0
 11
273.294173
 21
74.302811
 31
0.0
  0
LINE
  8
CAPTIONS
 10
269.912289
 20
79.950437
 30
0.0
 11
270.208957
 21
77.48538
 31
0.0
  0
LINE
  8
CAPTIONS
 10
271.813865
 20
80.844552
 30
0.0
 11
272.075707
 21
79.191839
 31
0.0
  0
LINE
  8
CAPTIONS
 10
271.120888
 20
78.829048
 30
0.0
 11
270.947079
 21
76.348636
 31
0.0
  0
LINE
  8
CAPTIONS
 10
271.337584
 20
77.227395
 30
0.0
 11
271.120888
 21
78.829048
 31
0.0
  0
LINE
  8
CAPTIONS
 10
271.380472
 20
79.191839
 30
0.0
 11
271.337584
 21
77.227395
 31
0.0
  0
LINE
  8
CAPTIONS
 10
271.640056
 20
78.004036
 30
0.0
 11
271.380472
 21
79.191839
 31
0.0
  0
ARC
  8
CAPTIONS
 10
276.561687
 20
79.193053
 30
0.0
 40
5.063221
 50
160.56057
 51
193.581845
  0
LINE
  8
CAPTIONS
 10
271.044141
 20
79.572098
 30
0.0
 11
271.327104
 21
83.868576
 31
0.0
  0
LINE
  8
CAPTIONS
 10
270.832281
 20
83.61635
 30
0.0
 11
271.044141
 21
79.572098
 31
0.0
  0
LINE
  8
CAPTIONS
 10
270.61897
 20
80.708842
 30
0.0
 11
270.832281
 21
83.61635
 31
0.0
  0
LINE
  8
CAPTIONS
 10
270.018219
 20
82.731832
 30
0.0
 11
270.61897
 21
80.708842
 31
0.0
  0
LINE
  8
CAPTIONS
 10
269.912289
 20
79.950437
 30
0.0
 11
270.018219
 21
82.731832
 31
0.0
  0
LINE
  8
CAPTIONS
 10
269.770081
 20
81.467247
 30
0.0
 11
269.912289
 21
79.950437
 31
0.0
  0
LINE
  8
CAPTIONS
 10
269.558221
 20
79.487447
 30
0.0
 11
269.770081
 21
81.467247
 31
0.0
  0
LINE
  8
CAPTIONS
 10
269.416014
 20
80.961068
 30
0.0
 11
269.558221
 21
79.487447
 31
0.0
  0
LINE
  8
CAPTIONS
 10
269.043084
 20
79.166118
 30
0.0
 11
269.416014
 21
80.961068
 31
0.0
  0
ARC
  8
CAPTIONS
 10
276.95899
 20
83.204293
 30
0.0
 40
5.670927
 50
173.273027
 51
204.21668
  0
ARC
  8
CAPTIONS
 10
273.556582
 20
81.515672
 30
0.0
 40
1.880825
 50
118.145776
 51
199.813636
  0
LINE
  8
CAPTIONS
 10
266.473198
 20
67.332231
 30
0.0
 11
266.454334
 21
67.733028
 31
0.0
  0
LINE
  8
CAPTIONS
 10
266.883857
 20
66.796684
 30
0.0
 11
266.658938
 21
67.375421
 31
0.0
  0
LINE
  8
CAPTIONS
 10
266.286007
 20
69.168644
 30
0.0
 11
262.770008
 21
68.266849
 31
0.0
  0
LINE
  8
CAPTIONS
 10
268.887817
 20
77.008377
 30
0.0
 11
269.043084
 21
79.166118
 31
0.0
  0
LINE
  8
CAPTIONS
 10
268.681762
 20
78.673759
 30
0.0
 11
268.887817
 21
77.008377
 31
0.0
  0
LINE
  8
CAPTIONS
 10
268.422016
 20
76.700869
 30
0.0
 11
268.681762
 21
78.673759
 31
0.0
  0
LINE
  8
CAPTIONS
 10
268.266749
 20
77.687314
 30
0.0
 11
268.422016
 21
76.700869
 31
0.0
  0
LINE
  8
CAPTIONS
 10
268.060693
 20
76.700869
 30
0.0
 11
268.266749
 21
77.687314
 31
0.0
  0
ARC
  8
CAPTIONS
 10
274.532143
 20
82.049299
 30
0.0
 40
2.176029
 50
148.875368
 51
216.031052
  0
ARC
  8
CAPTIONS
 10
261.85449
 20
72.271912
 30
0.0
 40
7.624476
 50
344.447646
 51
35.512937
  0
ARC
  8
CAPTIONS
 10
265.568525
 20
76.868994
 30
0.0
 40
8.191957
 50
329.36484
 51
28.431967
  0
LINE
  8
CAPTIONS
 10
267.800948
 20
69.769839
 30
0.0
 11
266.286007
 21
69.168644
 31
0.0
  0
LINE
  8
CAPTIONS
 10
268.73255
 20
70.001334
 30
0.0
 11
267.800948
 21
69.769839
 31
0.0
  0
ARC
  8
CAPTIONS
 10
268.956469
 20
69.695106
 30
0.0
 40
0.379362
 50
295.777135
 51
126.174908
  0
LINE
  8
CAPTIONS
 10
267.256788
 20
68.892231
 30
0.0
 11
269.121442
 21
69.353494
 31
0.0
  0
ARC
  8
CAPTIONS
 10
268.647708
 20
72.684966
 30
0.0
 40
4.039739
 50
249.86037
 51
306.718536
  0
LINE
  8
CAPTIONS
 10
270.752471
 20
71.526782
 30
0.0
 11
271.063005
 21
69.446783
 31
0.0
  0
LINE
  8
CAPTIONS
 10
271.102185
 20
71.711633
 30
0.0
 11
270.752471
 21
71.526782
 31
0.0
  0
LINE
  8
CAPTIONS
 10
271.412718
 20
71.573427
 30
0.0
 11
271.102185
 21
71.711633
 31
0.0
  0
LINE
  8
CAPTIONS
 10
271.684073
 20
70.972231
 30
0.0
 11
271.994607
 21
68.845587
 31
0.0
  0
LINE
  8
CAPTIONS
 10
271.412718
 20
71.618344
 30
0.0
 11
271.684073
 21
70.972231
 31
0.0
  0
LINE
  8
CAPTIONS
 10
271.567985
 20
71.803195
 30
0.0
 11
271.412718
 21
71.618344
 31
0.0
  0
LINE
  8
CAPTIONS
 10
271.83934
 20
71.896483
 30
0.0
 11
271.567985
 21
71.803195
 31
0.0
  0
LINE
  8
CAPTIONS
 10
272.072966
 20
71.664989
 30
0.0
 11
271.83934
 21
71.896483
 31
0.0
  0
LINE
  8
CAPTIONS
 10
272.538767
 20
69.400138
 30
0.0
 11
272.072966
 21
71.664989
 31
0.0
  0
LINE
  8
CAPTIONS
 10
272.460408
 20
72.081334
 30
0.0
 11
273.120655
 21
72.40439
 31
0.0
  0
LINE
  8
CAPTIONS
 10
272.34432
 20
71.388576
 30
0.0
 11
272.460408
 21
72.081334
 31
0.0
  0
LINE
  8
CAPTIONS
 10
272.538767
 20
69.400138
 30
0.0
 11
272.34432
 21
71.388576
 31
0.0
  0
LINE
  8
CAPTIONS
 10
273.470368
 20
70.32439
 30
0.0
 11
273.120655
 21
72.40439
 31
0.0
  0
ARC
  8
CAPTIONS
 10
273.776965
 20
71.66855
 30
0.0
 40
0.56983
 50
319.077108
 51
161.449207
  0
ARC
  8
CAPTIONS
 10
266.119995
 20
76.245413
 30
0.0
 40
9.482187
 50
274.559046
 51
328.530496
  0
LINE
  8
CAPTIONS
 10
266.036419
 20
66.394159
 30
0.0
 11
266.8737
 21
66.793228
 31
0.0
  0
TEXT
  8
CAPTIONS
 10
202.809971
 20
65.494239
 30
0.0
 40
2.7648
  1
DIV., AQUA-CHEM INC.
  7
ROMANS
  0
TEXT
  8
CAPTIONS
 10
289.735528
 20
65.414919
 30
0.0
 40
2.7648
  1
MILWAUKEE,WISCONSIN
  7
ROMANS
  0
TEXT
  8
CAPTIONS
 10
292.072744
 20
71.37826
 30
0.0
 40
8.2944
  1
Brooks
  7
ROMANT
  0
TEXT
  8
CAPTIONS
 10
203.541826
 20
71.29894
 30
0.0
 40
8.2944
  1
Cleaver
  7
ROMANT
  0
TEXT
  8
CAPTIONS
 10
300.90334
 20
331.808029
 30
0.0
 40
4.0
  1
REAR TUBE CLEARANCE
  7
ROMAND
  0
TEXT
  8
CAPTIONS
 10
187.896592
 20
313.895454
 30
0.0
 40
4.0
  1
FRONT DOOR SWING
  7
ROMAND
  0
TEXT
  8
CAPTIONS
 10
282.25947
 20
322.162152
 30
0.0
 40
4.0
  1
REAR DOOR SWING
  7
ROMAND
  0
TEXT
  8
CAPTIONS
 10
153.219499
 20
334.341394
 30
0.0
 40
4.0
  1
FRONT TUBE CLEARANCE
  7
ROMAND
 72
     4
 11
191.219499
 21
336.341394
 31
0.0
  0
SOLID
  8
CAPTIONS
  6
CONTINUOUS
 10
180.836419
 20
285.283962
 30
0.0
 11
179.508716
 21
284.276498
 31
0.0
 12
183.194958
 22
280.797122
 32
0.0
 13
183.194958
 23
280.797122
 33
0.0
  0
LINE
  8
CAPTIONS
  6
CONTINUOUS
 10
183.194958
 20
280.797122
 30
0.0
 11
141.192302
 21
336.151015
 31
0.0
  0
LINE
  8
CAPTIONS
  6
CONTINUOUS
 10
141.192302
 20
336.151015
 30
0.0
 11
148.524197
 21
336.151015
 31
0.0
  0
SOLID
  8
CAPTIONS
  6
CONTINUOUS
 10
196.800776
 20
292.340736
 30
0.0
 11
195.473073
 21
291.333272
 31
0.0
 12
199.159315
 22
287.853896
 32
0.0
 13
199.159315
 23
287.853896
 33
0.0
  0
LINE
  8
CAPTIONS
  6
CONTINUOUS
 10
199.159315
 20
287.853896
 30
0.0
 11
177.825206
 21
315.969404
 31
0.0
  0
LINE
  8
CAPTIONS
  6
CONTINUOUS
 10
177.825206
 20
315.969404
 30
0.0
 11
184.735287
 21
315.969404
 31
0.0
  0
LINE
  8
CAPTIONS
  6
CONTINUOUS
 10
325.292238
 20
290.922688
 30
0.0
 11
351.149769
 21
324.999462
 31
0.0
  0
SOLID
  8
CAPTIONS
  6
CONTINUOUS
 10
324.628387
 20
291.42642
 30
0.0
 11
325.956089
 21
290.418956
 31
0.0
 12
322.269847
 22
286.93958
 32
0.0
 13
322.269847
 23
286.93958
 33
0.0
  0
LINE
  8
CAPTIONS
  6
CONTINUOUS
 10
351.149769
 20
324.999462
 30
0.0
 11
343.55596
 21
324.999462
 31
0.0
  0
LINE
  8
CAPTIONS
  6
CONTINUOUS
 10
350.81735
 20
275.003532
 30
0.0
 11
395.971717
 21
334.51096
 31
0.0
  0
SOLID
  8
CAPTIONS
  6
CONTINUOUS
 10
350.153498
 20
275.507264
 30
0.0
 11
351.481201
 21
274.4998
 31
0.0
 12
347.794958
 22
271.020424
 32
0.0
 13
347.794958
 23
271.020424
 33
0.0
  0
LINE
  8
CAPTIONS
  6
CONTINUOUS
 10
395.971717
 20
334.51096
 30
0.0
 11
379.442101
 21
334.51096
 31
0.0
  0
INSERT
  8
0
 66
     1
  2
GETDAT
 10
0.0
 20
-269.951032
 30
0.0
  0
ATTRIB
  8
0
 10
0.0
 20
-269.951032
 30
0.0
 40
1.0
  1
96" DIM.DIAG.PROTOTYPE
  2
DWGNAM
 70
     1
  0
ATTRIB
  8
0
 10
0.0
 20
-269.951032
 30
0.0
 40
1.0
  1
B
  2
DWGSIZ
 70
     1
  0
ATTRIB
  8
0
 10
0.0
 20
-269.951032
 30
0.0
 40
1.0
  1
00
  2
DWGREV
 70
     1
  0
ATTRIB
  8
0
 10
0.0
 20
-269.951032
 30
0.0
 40
1.0
  1
01
  2
DWGSHT
 70
     1
  0
ATTRIB
  8
0
 10
0.0
 20
-269.951032
 30
0.0
 40
1.0
  1
01
  2
DWGOF
 70
     1
  0
ATTRIB
  8
0
 10
0.0
 20
-269.951032
 30
0.0
 40
1.0
  1
 
  2
DWGDIST
 70
     1
  0
ATTRIB
  8
0
 10
0.0
 20
-269.951032
 30
0.0
 40
1.0
  1
01
  2
DWGQUAN
 70
     1
  0
ATTRIB
  8
0
 10
0.0
 20
-269.951032
 30
0.0
 40
1.0
  1
96" DIM. DIAG. PROTOTYPE 
  2
DWGDESC
 70
     1
  0
ATTRIB
  8
0
 10
0.0
 20
-269.951032
 30
0.0
 40
1.0
  1
D. KLEIST 
  2
DRWN
 70
     1
  0
ATTRIB
  8
0
 10
0.0
 20
-269.951032
 30
0.0
 40
1.0
  1
10/14/92
  2
DATE
 70
     1
  0
ATTRIB
  8
0
 10
0.0
 20
-269.951032
 30
0.0
 40
1.0
  1
01 
  2
FILE
 70
     1
  0
SEQEND
  8
0
  0
TEXT
  8
CAPTIONS
 10
239.802318
 20
353.892284
 30
0.0
 40
5.0
  1
SCALE - 1"=1"
  7
ROMAND
  0
LINE
  8
CAPTIONS
  6
DASHED
 10
183.194958
 20
198.871977
 30
0.0
 11
335.794958
 21
198.871977
 31
0.0
  0
LINE
  8
CAPTIONS
  6
DASHED
 10
335.794958
 20
243.027627
 30
0.0
 11
335.794958
 21
198.871977
 31
0.0
  0
LINE
  8
CAPTIONS
  6
DASHED
 10
347.794958
 20
253.414612
 30
0.0
 11
347.794958
 21
211.30027
 31
0.0
  0
LINE
  8
CAPTIONS
  6
DASHED
 10
347.794958
 20
211.30027
 30
0.0
 11
185.183738
 21
211.30027
 31
0.0
  0
LINE
  8
CAPTIONS
  6
DASHED
 10
183.194958
 20
247.071234
 30
0.0
 11
183.194958
 21
198.871977
 31
0.0
  0
LINE
  8
CAPTIONS
  6
DASHED
 10
185.183738
 20
244.386007
 30
0.0
 11
185.183738
 21
211.30027
 31
0.0
  0
TEXT
  8
CAPTIONS
  6
CONTINUOUS
 10
188.492283
 20
212.858557
 30
0.0
 40
4.0
  1
Distance required for tube removal from rear
  7
ROMANS
  0
TEXT
  8
CAPTIONS
  6
CONTINUOUS
 10
185.33865
 20
200.430264
 30
0.0
 40
4.0
  1
Distance required for tube removal from front
  7
ROMANS
  0
LINE
  8
RIGHTSIDE
 10
290.794958
 20
158.304587
 30
0.0
 11
290.794958
 21
143.831691
 31
0.0
  0
LINE
  8
RIGHTSIDE
 10
292.794958
 20
120.304587
 30
0.0
 11
302.894958
 21
120.304587
 31
0.0
  0
LINE
  8
RIGHTSIDE
 10
292.794958
 20
158.304587
 30
0.0
 11
253.059378
 21
158.304587
 31
0.0
  0
LINE
  8
RIGHTSIDE
 10
229.194958
 20
119.304587
 30
0.0
 11
229.194958
 21
119.804587
 31
0.0
  0
LINE
  8
RIGHTSIDE
 10
230.194958
 20
118.304587
 30
0.0
 11
230.194958
 21
132.777482
 31
0.0
  0
LINE
  8
RIGHTSIDE
 10
230.194958
 20
158.304587
 30
0.0
 11
228.194958
 21
158.304587
 31
0.0
  0
LINE
  8
RIGHTSIDE
 10
229.194958
 20
158.304587
 30
0.0
 11
229.194958
 21
143.831691
 31
0.0
  0
LINE
  8
RIGHTSIDE
 10
228.194958
 20
156.304587
 30
0.0
 11
221.66357
 21
156.304587
 31
0.0
  0
LINE
  8
RIGHTSIDE
 10
219.66357
 20
158.724897
 30
0.0
 11
219.66357
 21
122.304587
 31
0.0
  0
LINE
  8
RIGHTSIDE
 10
214.794958
 20
151.304587
 30
0.0
 11
214.794958
 21
151.304587
 31
0.0
  0
LINE
  8
RIGHTSIDE
 10
289.994958
 20
106.804587
 30
0.0
 11
289.994958
 21
114.804587
 31
0.0
  0
LINE
  8
RIGHTSIDE
 10
215.794958
 20
151.304587
 30
0.0
 11
215.794958
 21
158.504587
 31
0.0
  0
LINE
  8
RIGHTSIDE
 10
215.794958
 20
165.804587
 30
0.0
 11
215.794958
 21
158.504587
 31
0.0
  0
LINE
  8
RIGHTSIDE
 10
215.794958
 20
148.504587
 30
0.0
 11
215.794958
 21
150.504587
 31
0.0
  0
LINE
  8
RIGHTSIDE
 10
228.194958
 20
158.304587
 30
0.0
 11
228.194958
 21
143.831691
 31
0.0
  0
LINE
  8
RIGHTSIDE
 10
292.794958
 20
158.304587
 30
0.0
 11
292.794958
 21
143.831691
 31
0.0
  0
LINE
  8
RIGHTSIDE
 10
289.994958
 20
114.804587
 30
0.0
 11
230.994958
 21
114.804587
 31
0.0
  0
LINE
  8
RIGHTSIDE
 10
210.694958
 20
165.804587
 30
0.0
 11
210.694958
 21
152.629226
 31
0.0
  0
LINE
  8
RIGHTSIDE
 10
232.112613
 20
131.778224
 30
0.0
 11
232.112613
 21
144.830949
 31
0.0
  0
LINE
  8
RIGHTSIDE
 10
244.141028
 20
131.778224
 30
0.0
 11
244.141028
 21
144.830949
 31
0.0
  0
LINE
  8
RIGHTSIDE
 10
239.53868
 20
158.04994
 30
0.0
 11
239.53868
 21
159.804587
 31
0.0
  0
LINE
  8
RIGHTSIDE
 10
241.53868
 20
159.804587
 30
0.0
 11
229.49106
 21
159.804587
 31
0.0
  0
LINE
  8
RIGHTSIDE
 10
215.794958
 20
165.804587
 30
0.0
 11
210.694958
 21
165.804587
 31
0.0
  0
LINE
  8
RIGHTSIDE
 10
241.53868
 20
160.304587
 30
0.0
 11
229.49106
 21
160.304587
 31
0.0
  0
LINE
  8
RIGHTSIDE
 10
241.53868
 20
159.804587
 30
0.0
 11
241.53868
 21
160.304587
 31
0.0
  0
LINE
  8
RIGHTSIDE
 10
229.49106
 20
159.804587
 30
0.0
 11
229.49106
 21
160.304587
 31
0.0
  0
LINE
  8
RIGHTSIDE
  6
DASHED
 10
183.194958
 20
157.304587
 30
0.0
 11
183.194958
 21
119.304445
 31
0.0
  0
LINE
  8
RIGHTSIDE
  6
DASHED
 10
207.454521
 20
157.304587
 30
0.0
 11
183.194958
 21
157.304587
 31
0.0
  0
LINE
  8
RIGHTSIDE
 10
210.694958
 20
152.629226
 30
0.0
 11
215.794958
 21
152.629226
 31
0.0
  0
LINE
  8
RIGHTSIDE
 10
210.694958
 20
153.504587
 30
0.0
 11
210.694958
 21
152.629226
 31
0.0
  0
LINE
  8
RIGHTSIDE
 10
211.794958
 20
151.032699
 30
0.0
 11
215.794958
 21
151.032699
 31
0.0
  0
LINE
  8
RIGHTSIDE
 10
211.791103
 20
143.143896
 30
0.0
 11
215.78074
 21
143.128515
 31
0.0
  0
LINE
  8
RIGHTSIDE
 10
215.794958
 20
148.504587
 30
0.0
 11
215.775568
 21
141.172663
 31
0.0
  0
LINE
  8
RIGHTSIDE
 10
210.794958
 20
150.032699
 30
0.0
 11
210.794958
 21
144.143888
 31
0.0
  0
LINE
  8
RIGHTSIDE
 10
215.794958
 20
152.004587
 30
0.0
 11
215.794958
 21
153.504587
 31
0.0
  0
LINE
  8
RIGHTSIDE
 10
215.794958
 20
153.304587
 30
0.0
 11
215.794958
 21
148.504587
 31
0.0
  0
LINE
  8
RIGHTSIDE
 10
292.794958
 20
156.304587
 30
0.0
 11
302.894958
 21
156.304587
 31
0.0
  0
LINE
  8
RIGHTSIDE
 10
304.894958
 20
122.304587
 30
0.0
 11
304.894958
 21
154.304587
 31
0.0
  0
LINE
  8
RIGHTSIDE
  6
DASHED
 10
308.226868
 20
156.304587
 30
0.0
 11
347.794958
 21
156.304587
 31
0.0
  0
LINE
  8
RIGHTSIDE
 10
227.845579
 20
143.831691
 30
0.0
 11
227.845579
 21
132.777482
 31
0.0
  0
LINE
  8
RIGHTSIDE
 10
227.845579
 20
143.831691
 30
0.0
 11
231.83853
 21
143.831691
 31
0.0
  0
LINE
  8
RIGHTSIDE
 10
228.194958
 20
132.777482
 30
0.0
 11
228.194958
 21
118.304587
 31
0.0
  0
LINE
  8
RIGHTSIDE
 10
229.194958
 20
132.777482
 30
0.0
 11
229.194958
 21
118.304587
 31
0.0
  0
LINE
  8
RIGHTSIDE
 10
230.194958
 20
143.831691
 30
0.0
 11
230.194958
 21
158.304587
 31
0.0
  0
LINE
  8
RIGHTSIDE
 10
228.194958
 20
118.304587
 30
0.0
 11
236.31383
 21
118.304587
 31
0.0
  0
LINE
  8
RIGHTSIDE
  6
DASHED
 10
207.454521
 20
119.304445
 30
0.0
 11
183.194958
 21
119.304445
 31
0.0
  0
LINE
  8
RIGHTSIDE
  6
DASHED
 10
347.794958
 20
156.304587
 30
0.0
 11
347.794958
 21
118.804587
 31
0.0
  0
LINE
  8
RIGHTSIDE
 10
290.794958
 20
132.777482
 30
0.0
 11
290.794958
 21
118.304587
 31
0.0
  0
LINE
  8
RIGHTSIDE
 10
291.794958
 20
158.304587
 30
0.0
 11
291.794958
 21
143.831691
 31
0.0
  0
LINE
  8
RIGHTSIDE
 10
292.794958
 20
132.777482
 30
0.0
 11
292.794958
 21
118.304587
 31
0.0
  0
LINE
  8
RIGHTSIDE
 10
230.994958
 20
114.804587
 30
0.0
 11
230.994958
 21
106.804587
 31
0.0
  0
LINE
  8
PLANVIEW
  6
DASHED
 10
335.806457
 20
254.496811
 30
0.0
 11
295.806457
 21
254.496811
 31
0.0
  0
LINE
  8
PLANVIEW
  6
DASHED
 10
335.806457
 20
255.496811
 30
0.0
 11
295.806457
 21
255.496811
 31
0.0
  0
LINE
  8
PLANVIEW
 10
290.794958
 20
296.996811
 30
0.0
 11
290.794958
 21
256.996811
 31
0.0
  0
LINE
  8
PLANVIEW
  6
DASHED
 10
347.794958
 20
294.996811
 30
0.0
 11
347.794958
 21
258.996811
 31
0.0
  0
LINE
  8
PLANVIEW
 10
230.194958
 20
256.996811
 30
0.0
 11
251.459378
 21
256.996811
 31
0.0
  0
LINE
  8
PLANVIEW
 10
229.194958
 20
296.996811
 30
0.0
 11
229.194958
 21
256.996811
 31
0.0
  0
LINE
  8
PLANVIEW
  6
DASHED
 10
299.806457
 20
242.396811
 30
0.0
 11
330.306457
 21
242.396811
 31
0.0
  0
LINE
  8
PLANVIEW
  6
DASHED
 10
333.794958
 20
254.496811
 30
0.0
 11
333.794958
 21
244.396811
 31
0.0
  0
LINE
  8
PLANVIEW
  6
DASHED
 10
183.194958
 20
294.996811
 30
0.0
 11
183.194958
 21
258.996811
 31
0.0
  0
LINE
  8
PLANVIEW
  6
DASHED
 10
335.806457
 20
255.496811
 30
0.0
 11
335.806457
 21
254.496811
 31
0.0
  0
LINE
  8
PLANVIEW
 10
219.66357
 20
292.996811
 30
0.0
 11
219.66357
 21
260.996811
 31
0.0
  0
LINE
  8
PLANVIEW
 10
228.194958
 20
294.996811
 30
0.0
 11
221.66357
 21
294.996811
 31
0.0
  0
LINE
  8
PLANVIEW
 10
230.194958
 20
256.996811
 30
0.0
 11
230.194958
 21
274.177003
 31
0.0
  0
LINE
  8
PLANVIEW
 10
292.794958
 20
296.996811
 30
0.0
 11
228.194958
 21
296.996811
 31
0.0
  0
LINE
  8
PLANVIEW
 10
290.794958
 20
256.996811
 30
0.0
 11
292.794958
 21
256.996811
 31
0.0
  0
LINE
  8
PLANVIEW
 10
210.694958
 20
289.74729
 30
0.0
 11
215.794958
 21
289.74729
 31
0.0
  0
LINE
  8
PLANVIEW
 10
215.794958
 20
287.335163
 30
0.0
 11
219.66357
 21
287.335163
 31
0.0
  0
LINE
  8
PLANVIEW
 10
210.694958
 20
264.246331
 30
0.0
 11
215.794958
 21
264.246331
 31
0.0
  0
LINE
  8
PLANVIEW
 10
215.794958
 20
264.246331
 30
0.0
 11
215.794958
 21
289.74729
 31
0.0
  0
LINE
  8
PLANVIEW
 10
215.794958
 20
266.658458
 30
0.0
 11
219.66357
 21
266.658458
 31
0.0
  0
LINE
  8
PLANVIEW
 10
210.694958
 20
264.246331
 30
0.0
 11
210.694958
 21
289.74729
 31
0.0
  0
CIRCLE
  8
PLANVIEW
 10
291.794958
 20
254.996811
 30
0.0
 40
1.5
  0
LINE
  8
PLANVIEW
  6
DASHED
 10
318.383489
 20
240.876572
 30
0.0
 11
318.383489
 21
239.996203
 31
0.0
  0
LINE
  8
PLANVIEW
 10
313.206428
 20
240.876572
 30
0.0
 11
313.206428
 21
239.996203
 31
0.0
  0
LINE
  8
PLANVIEW
  6
DASHED
 10
318.383489
 20
239.996203
 30
0.0
 11
313.206428
 21
239.996203
 31
0.0
  0
LINE
  8
PLANVIEW
 10
292.792271
 20
294.968253
 30
0.0
 11
302.892271
 21
294.968253
 31
0.0
  0
LINE
  8
PLANVIEW
 10
304.892271
 20
261.021209
 30
0.0
 11
304.892271
 21
292.968253
 31
0.0
  0
LINE
  8
PLANVIEW
 10
291.794958
 20
296.996811
 30
0.0
 11
291.794958
 21
256.996811
 31
0.0
  0
LINE
  8
PLANVIEW
 10
292.794958
 20
296.996811
 30
0.0
 11
292.794958
 21
256.996811
 31
0.0
  0
LINE
  8
PLANVIEW
  6
DASHED
 10
185.194958
 20
254.496811
 30
0.0
 11
225.194958
 21
254.496811
 31
0.0
  0
LINE
  8
PLANVIEW
  6
DASHED
 10
185.194958
 20
255.496811
 30
0.0
 11
185.194958
 21
254.496811
 31
0.0
  0
CIRCLE
  8
PLANVIEW
 10
235.49106
 20
276.996811
 30
0.0
 40
6.0
  0
LINE
  8
PLANVIEW
 10
231.238552
 20
252.361924
 30
0.0
 11
241.744734
 21
252.361924
 31
0.0
  0
LINE
  8
PLANVIEW
 10
241.744734
 20
252.361924
 30
0.0
 11
241.744734
 21
247.380519
 31
0.0
  0
LINE
  8
PLANVIEW
 10
241.744734
 20
247.380519
 30
0.0
 11
231.238552
 21
247.380519
 31
0.0
  0
LINE
  8
PLANVIEW
 10
231.238552
 20
247.380519
 30
0.0
 11
231.238552
 21
252.361924
 31
0.0
  0
LINE
  8
PLANVIEW
 10
221.66357
 20
258.996811
 30
0.0
 11
228.194958
 21
258.996811
 31
0.0
  0
LINE
  8
RIGHTSIDE
 10
221.66357
 20
120.304587
 30
0.0
 11
228.194958
 21
120.304587
 31
0.0
  0
LINE
  8
RIGHTSIDE
  6
DASHED
 10
308.226868
 20
118.804587
 30
0.0
 11
347.794958
 21
118.804587
 31
0.0
  0
LINE
  8
FRONTVIEW
 10
123.529383
 20
106.804587
 30
0.0
 11
123.529383
 21
114.804587
 31
0.0
  0
LINE
  8
FRONTVIEW
 10
145.529383
 20
106.804587
 30
0.0
 11
145.529383
 21
114.804587
 31
0.0
  0
LINE
  8
FRONTVIEW
 10
120.529383
 20
106.804587
 30
0.0
 11
123.529383
 21
106.804587
 31
0.0
  0
LINE
  8
FRONTVIEW
 10
145.529383
 20
106.804587
 30
0.0
 11
148.529383
 21
106.804587
 31
0.0
  0
LINE
  8
FRONTVIEW
 10
145.529383
 20
114.804587
 30
0.0
 11
148.529383
 21
114.804587
 31
0.0
  0
LINE
  8
FRONTVIEW
 10
120.529383
 20
114.804587
 30
0.0
 11
123.529383
 21
114.804587
 31
0.0
  0
LINE
  8
FRONTVIEW
 10
148.529383
 20
114.804587
 30
0.0
 11
151.145731
 21
127.173685
 31
0.0
  0
LINE
  8
FRONTVIEW
 10
123.529383
 20
114.804587
 30
0.0
 11
125.33866
 21
120.541405
 31
0.0
  0
LINE
  8
FRONTVIEW
 10
145.529383
 20
114.804587
 30
0.0
 11
143.720106
 21
120.541405
 31
0.0
  0
LINE
  8
FRONTVIEW
 10
161.156682
 20
155.516937
 30
0.0
 11
161.156682
 21
144.830949
 31
0.0
  0
LINE
  8
FRONTVIEW
 10
157.447806
 20
144.830949
 30
0.0
 11
162.529383
 21
144.830949
 31
0.0
  0
LINE
  8
FRONTVIEW
 10
158.636327
 20
155.516937
 30
0.0
 11
158.636327
 21
144.830949
 31
0.0
  0
LINE
  8
FRONTVIEW
 10
159.636327
 20
156.516937
 30
0.0
 11
160.156682
 21
156.516937
 31
0.0
  0
LINE
  8
FRONTVIEW
 10
160.369932
 20
156.516937
 30
0.0
 11
160.369932
 21
156.893426
 31
0.0
  0
LINE
  8
FRONTVIEW
 10
160.369932
 20
156.516937
 30
0.0
 11
160.369932
 21
156.893426
 31
0.0
  0
LINE
  8
FRONTVIEW
 10
159.327493
 20
156.516937
 30
0.0
 11
159.327493
 21
156.893426
 31
0.0
  0
LINE
  8
FRONTVIEW
 10
160.369932
 20
156.493934
 30
0.0
 11
160.369932
 21
160.492868
 31
0.0
  0
LINE
  8
FRONTVIEW
 10
159.327493
 20
156.468053
 30
0.0
 11
159.327493
 21
160.492868
 31
0.0
  0
LINE
  8
FRONTVIEW
 10
120.529383
 20
106.804587
 30
0.0
 11
120.529383
 21
114.804587
 31
0.0
  0
LINE
  8
FRONTVIEW
 10
125.171167
 20
152.629226
 30
0.0
 11
143.8876
 21
152.629226
 31
0.0
  0
LINE
  8
FRONTVIEW
 10
143.8876
 20
162.200307
 30
0.0
 11
158.155965
 21
162.200307
 31
0.0
  0
LINE
  8
FRONTVIEW
 10
143.8876
 20
161.458707
 30
0.0
 11
158.155965
 21
161.458707
 31
0.0
  0
LINE
  8
FRONTVIEW
 10
148.529383
 20
114.804587
 30
0.0
 11
148.529383
 21
106.804587
 31
0.0
  0
LINE
  8
PLANVIEW
 10
230.194958
 20
279.816618
 30
0.0
 11
230.194958
 21
296.996811
 31
0.0
  0
LINE
  8
PLANVIEW
 10
302.892271
 20
259.021209
 30
0.0
 11
292.792271
 21
259.021209
 31
0.0
  0
TEXT
  8
PLANVIEW
 10
250.586401
 20
232.516487
 30
0.0
 40
4.0
  1
PLAN VIEW
  7
ROMANS
 72
     4
 11
266.776878
 21
234.516487
 31
0.0
  0
TEXT
  8
FRONTVIEW
 10
117.846028
 20
97.711289
 30
0.0
 40
4.0
  1
FRONT VIEW
  7
ROMANS
 72
     4
 11
136.036505
 21
99.711289
 31
0.0
  0
TEXT
  8
RIGHTSIDE
 10
243.145111
 20
97.554042
 30
0.0
 40
4.0
  1
RIGHT SIDE
  7
ROMANS
 72
     4
 11
260.19273
 21
99.554042
 31
0.0
  0
ARC
  8
PLANVIEW
 10
221.66357
 20
292.996811
 30
0.0
 40
2.0
 50
90.0
 51
180.0
  0
ARC
  8
PLANVIEW
 10
221.66357
 20
260.996811
 30
0.0
 40
2.0
 50
180.0
 51
270.0
  0
ARC
  8
PLANVIEW
 10
302.892271
 20
261.021209
 30
0.0
 40
2.0
 50
270.0
 51
0.0
  0
ARC
  8
PLANVIEW
 10
302.892271
 20
292.968253
 30
0.0
 40
2.0
 50
0.0
 51
90.0
  0
ARC
  8
PLANVIEW
  6
DASHED
 10
299.806457
 20
244.396811
 30
0.0
 40
2.0
 50
180.0
 51
270.0
  0
ARC
  8
PLANVIEW
  6
DASHED
 10
331.794958
 20
244.396811
 30
0.0
 40
2.0
 50
270.0
 51
0.0
  0
ARC
  8
RIGHTSIDE
 10
302.894958
 20
154.304587
 30
0.0
 40
2.0
 50
0.0
 51
90.0
  0
ARC
  8
RIGHTSIDE
 10
302.894958
 20
122.304587
 30
0.0
 40
2.0
 50
270.0
 51
0.0
  0
ARC
  8
RIGHTSIDE
 10
221.66357
 20
154.304587
 30
0.0
 40
2.0
 50
90.0
 51
180.0
  0
ARC
  8
RIGHTSIDE
 10
221.66357
 20
122.304587
 30
0.0
 40
2.0
 50
180.0
 51
270.0
  0
ARC
  8
RIGHTSIDE
 10
217.773279
 20
141.268318
 30
0.0
 40
2.0
 50
179.848476
 51
270.0
  0
ARC
  8
RIGHTSIDE
 10
211.794958
 20
144.143888
 30
0.0
 40
1.0
 50
180.0
 51
269.779122
  0
ARC
  8
RIGHTSIDE
 10
211.794958
 20
150.032699
 30
0.0
 40
1.0
 50
90.0
 51
180.0
  0
LINE
  8
RIGHTSIDE
 10
236.31383
 20
127.026852
 30
0.0
 11
239.31383
 21
127.026852
 31
0.0
  0
LINE
  8
RIGHTSIDE
 10
236.31383
 20
127.026852
 30
0.0
 11
236.31383
 21
114.804587
 31
0.0
  0
LINE
  8
RIGHTSIDE
 10
239.31383
 20
118.304587
 30
0.0
 11
281.676087
 21
118.304587
 31
0.0
  0
LINE
  8
RIGHTSIDE
 10
284.676087
 20
118.304587
 30
0.0
 11
292.794958
 21
118.304587
 31
0.0
  0
LINE
  8
FRONTVIEW
 10
125.171167
 20
165.804587
 30
0.0
 11
143.8876
 21
165.804587
 31
0.0
  0
CIRCLE
  8
FRONTVIEW
 10
134.529383
 20
131.07799
 30
0.0
 40
5.615127
  0
LINE
  8
FRONTVIEW
 10
125.171167
 20
165.804587
 30
0.0
 11
125.171167
 21
152.629226
 31
0.0
  0
LINE
  8
FRONTVIEW
 10
143.8876
 20
165.804587
 30
0.0
 11
143.8876
 21
152.629226
 31
0.0
  0
ARC
  8
FRONTVIEW
 10
134.529383
 20
148.154827
 30
0.0
 40
8.886509
 50
149.767859
 51
30.232141
  0
LINE
  8
FRONTVIEW
  6
DASHED
 10
137.351276
 20
159.804587
 30
0.0
 11
137.351276
 21
158.104509
 31
0.0
  0
LINE
  8
FRONTVIEW
  6
DASHED
 10
139.381818
 20
160.304587
 30
0.0
 11
139.381818
 21
159.804587
 31
0.0
  0
LINE
  8
FRONTVIEW
  6
DASHED
 10
131.70749
 20
159.804587
 30
0.0
 11
131.70749
 21
158.104509
 31
0.0
  0
LINE
  8
FRONTVIEW
  6
DASHED
 10
139.381818
 20
160.304587
 30
0.0
 11
129.676948
 21
160.304587
 31
0.0
  0
LINE
  8
FRONTVIEW
  6
DASHED
 10
129.676948
 20
160.304587
 30
0.0
 11
129.676948
 21
159.804587
 31
0.0
  0
ARC
  8
FRONTVIEW
 10
160.156682
 20
155.516937
 30
0.0
 40
1.0
 50
0.0
 51
90.0
  0
ARC
  8
FRONTVIEW
 10
159.636327
 20
155.516937
 30
0.0
 40
1.0
 50
90.0
 51
180.0
  0
LINE
  8
FRONTVIEW
 10
158.155965
 20
161.239199
 30
0.0
 11
158.155965
 21
162.436676
 31
0.0
  0
LINE
  8
FRONTVIEW
 10
158.590492
 20
161.239199
 30
0.0
 11
158.155965
 21
161.239199
 31
0.0
  0
LINE
  8
FRONTVIEW
 10
159.090492
 20
160.739199
 30
0.0
 11
159.090492
 21
160.492868
 31
0.0
  0
LINE
  8
FRONTVIEW
 10
159.090492
 20
160.492868
 30
0.0
 11
160.613425
 21
160.492868
 31
0.0
  0
LINE
  8
FRONTVIEW
 10
160.613425
 20
160.492868
 30
0.0
 11
160.613425
 21
160.739199
 31
0.0
  0
ARC
  8
FRONTVIEW
 10
158.590492
 20
160.739199
 30
0.0
 40
0.5
 50
0.0
 51
90.0
  0
LINE
  8
RIGHTSIDE
 10
230.994958
 20
106.804587
 30
0.0
 11
289.994958
 21
106.804587
 31
0.0
  0
LINE
  8
FRONTVIEW
 10
153.976998
 20
142.972591
 30
0.0
 11
155.353162
 21
142.972591
 31
0.0
  0
LINE
  8
FRONTVIEW
 10
156.529368
 20
143.831691
 30
0.0
 11
156.529368
 21
139.07799
 31
0.0
  0
LINE
  8
FRONTVIEW
 10
155.353162
 20
143.831691
 30
0.0
 11
156.529368
 21
143.831691
 31
0.0
  0
LINE
  8
FRONTVIEW
 10
156.529368
 20
132.777482
 30
0.0
 11
156.529368
 21
139.07799
 31
0.0
  0
LINE
  8
FRONTVIEW
 10
155.353162
 20
132.777482
 30
0.0
 11
155.353162
 21
143.831691
 31
0.0
  0
LINE
  8
FRONTVIEW
 10
162.529383
 20
144.830949
 30
0.0
 11
162.529383
 21
139.07799
 31
0.0
  0
LINE
  8
FRONTVIEW
 10
157.447806
 20
144.830949
 30
0.0
 11
157.447806
 21
139.07799
 31
0.0
  0
LINE
  8
FRONTVIEW
 10
157.447806
 20
131.778224
 30
0.0
 11
157.447806
 21
139.07799
 31
0.0
  0
LINE
  8
FRONTVIEW
 10
162.529383
 20
131.778224
 30
0.0
 11
162.529383
 21
139.07799
 31
0.0
  0
ARC
  8
FRONTVIEW
 10
161.113425
 20
160.739199
 30
0.0
 40
0.5
 50
90.0
 51
180.0
  0
LINE
  8
FRONTVIEW
 10
161.113425
 20
161.239199
 30
0.0
 11
161.547952
 21
161.239199
 31
0.0
  0
LINE
  8
FRONTVIEW
 10
161.547952
 20
161.239199
 30
0.0
 11
161.547952
 21
162.436676
 31
0.0
  0
LINE
  8
FRONTVIEW
 10
161.547952
 20
162.436676
 30
0.0
 11
158.155965
 21
162.436676
 31
0.0
  0
LINE
  8
RIGHTSIDE
 10
232.112613
 20
131.778224
 30
0.0
 11
244.141028
 21
131.778224
 31
0.0
  0
LINE
  8
RIGHTSIDE
 10
232.112613
 20
144.830949
 30
0.0
 11
244.141028
 21
144.830949
 31
0.0
  0
LINE
  8
RIGHTSIDE
 10
227.845579
 20
132.777482
 30
0.0
 11
231.83853
 21
132.777482
 31
0.0
  0
CIRCLE
  8
PLANVIEW
 10
235.49106
 20
276.996811
 30
0.0
 40
4.0
  0
ARC
  8
RIGHTSIDE
  6
DASHED
 10
206.194958
 20
138.304587
 30
0.0
 40
21.271074
 50
77.786511
 51
302.197156
  0
ARC
  8
RIGHTSIDE
  6
DASHED
 10
314.394958
 20
138.304587
 30
0.0
 40
21.251235
 50
250.240805
 51
122.157505
  0
LINE
  8
PLANVIEW
 10
228.194958
 20
296.996811
 30
0.0
 11
228.194958
 21
256.996811
 31
0.0
  0
LINE
  8
PLANVIEW
  6
DASHED
 10
347.794958
 20
294.996811
 30
0.0
 11
311.331428
 21
294.996811
 31
0.0
  0
LINE
  8
PLANVIEW
  6
DASHED
 10
347.794958
 20
258.996811
 30
0.0
 11
306.581433
 21
258.996811
 31
0.0
  0
LINE
  8
PLANVIEW
  6
DASHED
 10
318.383489
 20
240.876572
 30
0.0
 11
313.206428
 21
240.876572
 31
0.0
  0
LINE
  8
PLANVIEW
  6
DASHED
 10
317.101412
 20
242.396811
 30
0.0
 11
317.101412
 21
240.876572
 31
0.0
  0
LINE
  8
PLANVIEW
  6
DASHED
 10
314.488504
 20
242.396811
 30
0.0
 11
314.488504
 21
240.876572
 31
0.0
  0
LINE
  8
PLANVIEW
  6
DASHED
 10
297.806457
 20
254.496811
 30
0.0
 11
297.806457
 21
244.396811
 31
0.0
  0
LINE
  8
PLANVIEW
  6
CENTER
 10
310.679731
 20
276.996811
 30
0.0
 11
206.632659
 21
276.996811
 31
0.0
  0
LINE
  8
PLANVIEW
  6
DASHED
 10
217.474462
 20
294.996811
 30
0.0
 11
183.194958
 21
294.996811
 31
0.0
  0
LINE
  8
PLANVIEW
  6
DASHED
 10
219.028721
 20
258.996811
 30
0.0
 11
183.194958
 21
258.996811
 31
0.0
  0
LINE
  8
RIGHTSIDE
 10
231.49106
 20
158.027307
 30
0.0
 11
231.49106
 21
159.804587
 31
0.0
  0
LINE
  8
RIGHTSIDE
 10
230.94965
 20
158.304587
 30
0.0
 11
230.194958
 21
158.304587
 31
0.0
  0
ARC
  8
RIGHTSIDE
  6
CONTINUOUS
 10
235.49106
 20
166.504817
 30
0.0
 40
9.373803
 50
241.021664
 51
298.978336
  0
LINE
  8
RIGHTSIDE
 10
250.287471
 20
140.162817
 30
0.0
 11
254.231286
 21
140.16722
 31
0.0
  0
LINE
  8
RIGHTSIDE
 10
254.231286
 20
140.16722
 30
0.0
 11
254.229616
 21
141.142284
 31
0.0
  0
LINE
  8
RIGHTSIDE
 10
250.287471
 20
140.162817
 30
0.0
 11
250.285766
 21
141.151114
 31
0.0
  0
ARC
  8
RIGHTSIDE
 10
255.379501
 20
151.980655
 30
0.0
 40
0.75
 50
179.840645
 51
269.947215
  0
LINE
  8
RIGHTSIDE
 10
254.629504
 20
151.982741
 30
0.0
 11
254.636446
 21
154.478746
 31
0.0
  0
LINE
  8
RIGHTSIDE
 10
250.287471
 20
156.149786
 30
0.0
 11
250.285766
 21
155.161489
 31
0.0
  0
LINE
  8
RIGHTSIDE
 10
254.231286
 20
156.145383
 30
0.0
 11
254.229616
 21
155.17032
 31
0.0
  0
LINE
  8
RIGHTSIDE
 10
250.287471
 20
156.149786
 30
0.0
 11
254.231286
 21
156.145383
 31
0.0
  0
ARC
  8
RIGHTSIDE
 10
249.847186
 20
168.76406
 30
0.0
 40
23.358637
 50
281.77154
 51
305.215451
  0
ARC
  8
RIGHTSIDE
 10
253.848949
 20
154.480937
 30
0.0
 40
0.7875
 50
359.840645
 51
89.840645
  0
LINE
  8
RIGHTSIDE
 10
254.603223
 20
141.783283
 30
0.0
 11
254.612577
 21
145.896683
 31
0.0
  0
ARC
  8
RIGHTSIDE
 10
253.853226
 20
141.785368
 30
0.0
 40
0.75
 50
269.840645
 51
359.840645
  0
ARC
  8
RIGHTSIDE
 10
250.642164
 20
141.787734
 30
0.0
 40
0.75
 50
179.840645
 51
269.840645
  0
ARC
  8
RIGHTSIDE
 10
250.675493
 20
154.520698
 30
0.0
 40
0.75
 50
89.840645
 51
179.840645
  0
LINE
  8
RIGHTSIDE
 10
254.603159
 20
143.31934
 30
0.0
 11
254.601713
 21
142.049537
 31
0.0
  0
ARC
  8
RIGHTSIDE
 10
260.952828
 20
153.053936
 30
0.0
 40
1.450136
 50
312.70015
 51
327.622896
  0
ARC
  8
RIGHTSIDE
 10
262.122105
 20
150.416492
 30
0.0
 40
1.875
 50
321.090906
 51
332.831874
  0
LINE
  8
RIGHTSIDE
 10
262.17753
 20
152.277403
 30
0.0
 11
263.790237
 21
149.560362
 31
0.0
  0
LINE
  8
RIGHTSIDE
 10
261.936255
 20
151.988212
 30
0.0
 11
263.581124
 21
149.23883
 31
0.0
  0
ARC
  8
RIGHTSIDE
 10
260.952828
 20
153.053936
 30
0.0
 40
1.825136
 50
321.783307
 51
359.840645
  0
ARC
  8
RIGHTSIDE
 10
262.333932
 20
152.915262
 30
0.0
 40
3.318926
 50
292.72343
 51
2.168935
  0
LINE
  8
RIGHTSIDE
 10
250.640079
 20
141.037737
 30
0.0
 11
253.85114
 21
141.035371
 31
0.0
  0
LINE
  8
RIGHTSIDE
 10
255.37881
 20
151.230655
 30
0.0
 11
260.947752
 21
151.228807
 31
0.0
  0
LINE
  8
RIGHTSIDE
 10
250.677579
 20
155.270695
 30
0.0
 11
253.85114
 21
155.268434
 31
0.0
  0
LINE
  8
RIGHTSIDE
 10
249.925495
 20
154.522784
 30
0.0
 11
249.892167
 21
141.78982
 31
0.0
  0
LINE
  8
RIGHTSIDE
  6
CONTINUOUS
 10
251.459378
 20
160.92337
 30
0.0
 11
251.459378
 21
156.148478
 31
0.0
  0
LINE
  8
RIGHTSIDE
  6
CONTINUOUS
 10
253.059378
 20
160.92337
 30
0.0
 11
253.059378
 21
156.146691
 31
0.0
  0
ARC
  8
RIGHTSIDE
  6
CONTINUOUS
 10
252.259378
 20
135.176141
 30
0.0
 40
0.800029
 50
179.509422
 51
0.490578
  0
ARC
  8
RIGHTSIDE
  6
CONTINUOUS
 10
252.259378
 20
135.176141
 30
0.0
 40
1.520155
 50
121.753237
 51
58.246763
  0
ARC
  8
RIGHTSIDE
 10
260.952828
 20
153.053936
 30
0.0
 40
1.825136
 50
269.840645
 51
310.249008
  0
LINE
  8
RIGHTSIDE
  6
CONTINUOUS
 10
261.383735
 20
153.425569
 30
0.0
 11
266.431927
 21
153.425569
 31
0.0
  0
LINE
  8
RIGHTSIDE
  6
CONTINUOUS
 10
266.432886
 20
153.770385
 30
0.0
 11
263.352297
 21
153.770385
 31
0.0
  0
LINE
  8
RIGHTSIDE
  6
CONTINUOUS
 10
261.382692
 20
153.050569
 30
0.0
 11
266.432886
 21
153.050569
 31
0.0
  0
LINE
  8
RIGHTSIDE
  6
CONTINUOUS
 10
266.432886
 20
153.770385
 30
0.0
 11
266.432886
 21
153.050569
 31
0.0
  0
LINE
  8
RIGHTSIDE
  6
CONTINUOUS
 10
263.352297
 20
153.770385
 30
0.0
 11
263.352297
 21
153.425569
 31
0.0
  0
LINE
  8
RIGHTSIDE
  6
CONTINUOUS
 10
261.383735
 20
153.425569
 30
0.0
 11
261.383735
 21
153.050569
 31
0.0
  0
ARC
  8
RIGHTSIDE
  6
CONTINUOUS
 10
252.259378
 20
160.91652
 30
0.0
 40
0.800029
 50
359.509422
 51
180.490578
  0
ARC
  8
RIGHTSIDE
  6
CONTINUOUS
 10
252.259378
 20
160.91652
 30
0.0
 40
1.520155
 50
301.753237
 51
238.246763
  0
LINE
  8
RIGHTSIDE
  6
CONTINUOUS
 10
253.059378
 20
140.165912
 30
0.0
 11
253.059378
 21
135.169291
 31
0.0
  0
LINE
  8
RIGHTSIDE
  6
CONTINUOUS
 10
251.459378
 20
140.164125
 30
0.0
 11
251.459378
 21
135.169291
 31
0.0
  0
LINE
  8
PLANVIEW
 10
261.383735
 20
248.99464
 30
0.0
 11
266.373076
 21
248.99464
 31
0.0
  0
LINE
  8
PLANVIEW
 10
261.383735
 20
253.963086
 30
0.0
 11
266.373076
 21
253.963086
 31
0.0
  0
LINE
  8
PLANVIEW
 10
266.373076
 20
253.963086
 30
0.0
 11
266.373076
 21
248.99464
 31
0.0
  0
ARC
  8
PLANVIEW
 10
252.259378
 20
251.478863
 30
0.0
 40
2.462942
 50
108.954359
 51
71.045641
  0
LINE
  8
PLANVIEW
 10
251.459378
 20
251.475295
 30
0.0
 11
251.459378
 21
276.957034
 31
0.0
  0
LINE
  8
PLANVIEW
 10
253.059378
 20
251.475295
 30
0.0
 11
253.059378
 21
276.957034
 31
0.0
  0
ARC
  8
PLANVIEW
  6
CONTINUOUS
 10
252.259378
 20
251.489564
 30
0.0
 40
0.800127
 50
181.021808
 51
358.978192
  0
ARC
  8
PLANVIEW
  6
CONTINUOUS
 10
252.259378
 20
276.996811
 30
0.0
 40
0.800988
 50
357.153517
 51
182.846483
  0
ARC
  8
PLANVIEW
  6
CONTINUOUS
 10
252.259378
 20
276.996811
 30
0.0
 40
1.65425
 50
298.920975
 51
241.079025
  0
CIRCLE
  8
FRONTVIEW
  6
CONTINUOUS
 10
134.529383
 20
147.143896
 30
0.0
 40
4.0
  0
LINE
  8
FRONTVIEW
  6
DASHED
 10
139.381818
 20
159.804587
 30
0.0
 11
129.676948
 21
159.804587
 31
0.0
  0
LINE
  8
PLANVIEW
 10
304.894351
 20
275.690357
 30
0.0
 11
306.414589
 21
275.690357
 31
0.0
  0
LINE
  8
PLANVIEW
 10
304.894351
 20
278.303265
 30
0.0
 11
306.414589
 21
278.303265
 31
0.0
  0
LINE
  8
PLANVIEW
 10
306.414589
 20
279.585341
 30
0.0
 11
306.414589
 21
274.40828
 31
0.0
  0
LINE
  8
PLANVIEW
 10
307.294958
 20
279.585341
 30
0.0
 11
307.294958
 21
274.40828
 31
0.0
  0
LINE
  8
PLANVIEW
 10
306.414589
 20
274.40828
 30
0.0
 11
307.294958
 21
274.40828
 31
0.0
  0
LINE
  8
PLANVIEW
 10
306.414589
 20
279.585341
 30
0.0
 11
307.294958
 21
279.585341
 31
0.0
  0
LINE
  8
RIGHTSIDE
  6
CENTER
 10
310.679731
 20
138.304587
 30
0.0
 11
206.173885
 21
138.304587
 31
0.0
  0
LINE
  8
RIGHTSIDE
 10
306.414589
 20
134.14004
 30
0.0
 11
307.294958
 21
134.14004
 31
0.0
  0
LINE
  8
RIGHTSIDE
 10
306.414589
 20
128.962979
 30
0.0
 11
307.294958
 21
128.962979
 31
0.0
  0
LINE
  8
RIGHTSIDE
 10
307.294958
 20
134.14004
 30
0.0
 11
307.294958
 21
128.962979
 31
0.0
  0
LINE
  8
RIGHTSIDE
 10
306.414589
 20
134.14004
 30
0.0
 11
306.414589
 21
128.962979
 31
0.0
  0
LINE
  8
RIGHTSIDE
 10
304.894351
 20
132.857963
 30
0.0
 11
306.414589
 21
132.857963
 31
0.0
  0
LINE
  8
RIGHTSIDE
 10
304.894351
 20
130.245055
 30
0.0
 11
306.414589
 21
130.245055
 31
0.0
  0
LINE
  8
FRONTVIEW
  6
CENTER
 10
111.576417
 20
138.304587
 30
0.0
 11
163.206714
 21
138.304587
 31
0.0
  0
LINE
  8
RIGHTSIDE
  6
CONTINUOUS
 10
218.91357
 20
136.693117
 30
0.0
 11
219.66357
 21
136.693117
 31
0.0
  0
LINE
  8
RIGHTSIDE
  6
CONTINUOUS
 10
218.91357
 20
125.462863
 30
0.0
 11
219.66357
 21
125.462863
 31
0.0
  0
LINE
  8
RIGHTSIDE
 10
218.16357
 20
135.943117
 30
0.0
 11
218.16357
 21
126.212863
 31
0.0
  0
ARC
  8
RIGHTSIDE
  6
CONTINUOUS
 10
218.91357
 20
135.943117
 30
0.0
 40
0.75
 50
90.0
 51
180.0
  0
ARC
  8
RIGHTSIDE
  6
CONTINUOUS
 10
218.91357
 20
126.212863
 30
0.0
 40
0.75
 50
180.0
 51
270.0
  0
LINE
  8
RIGHTSIDE
 10
232.112613
 20
144.830949
 30
0.0
 11
232.112613
 21
143.330949
 31
0.0
  0
LINE
  8
RIGHTSIDE
 10
230.544338
 20
143.831691
 30
0.0
 11
230.544338
 21
132.777482
 31
0.0
  0
LINE
  8
RIGHTSIDE
 10
230.544338
 20
142.941414
 30
0.0
 11
231.83853
 21
142.941414
 31
0.0
  0
LINE
  8
RIGHTSIDE
 10
230.544338
 20
133.636582
 30
0.0
 11
231.83853
 21
133.636582
 31
0.0
  0
LINE
  8
RIGHTSIDE
 10
232.112613
 20
133.636582
 30
0.0
 11
232.112613
 21
132.136582
 31
0.0
  0
LINE
  8
FRONTVIEW
 10
155.353162
 20
132.777482
 30
0.0
 11
156.529368
 21
132.777482
 31
0.0
  0
LINE
  8
FRONTVIEW
 10
153.976998
 20
133.636582
 30
0.0
 11
155.353162
 21
133.636582
 31
0.0
  0
LINE
  8
FRONTVIEW
 10
157.447806
 20
131.778224
 30
0.0
 11
162.529383
 21
131.778224
 31
0.0
  0
LINE
  8
RIGHTSIDE
 10
231.83853
 20
132.777482
 30
0.0
 11
231.83853
 21
133.636582
 31
0.0
  0
LINE
  8
RIGHTSIDE
 10
231.83853
 20
142.941414
 30
0.0
 11
231.83853
 21
143.831691
 31
0.0
  0
LINE
  8
RIGHTSIDE
  6
CONTINUOUS
 10
217.773279
 20
139.268318
 30
0.0
 11
219.66357
 21
139.268318
 31
0.0
  0
LINE
  8
RIGHTSIDE
  6
CONTINUOUS
 10
216.544958
 20
159.474897
 30
0.0
 11
218.91357
 21
159.474897
 31
0.0
  0
ARC
  8
RIGHTSIDE
  6
CONTINUOUS
 10
218.91357
 20
158.724897
 30
0.0
 40
0.75
 50
0.0
 51
90.0
  0
ARC
  8
RIGHTSIDE
  6
CONTINUOUS
 10
216.544958
 20
158.724897
 30
0.0
 40
0.75
 50
90.0
 51
180.0
  0
LINE
  8
RIGHTSIDE
 10
284.676087
 20
127.026852
 30
0.0
 11
284.676087
 21
114.804587
 31
0.0
  0
LINE
  8
RIGHTSIDE
 10
284.676087
 20
127.026852
 30
0.0
 11
281.676087
 21
127.026852
 31
0.0
  0
LINE
  8
RIGHTSIDE
 10
281.676087
 20
127.026852
 30
0.0
 11
281.676087
 21
114.804587
 31
0.0
  0
LINE
  8
RIGHTSIDE
 10
239.31383
 20
127.026852
 30
0.0
 11
239.31383
 21
114.804587
 31
0.0
  0
LINE
  8
RIGHTSIDE
 10
289.151387
 20
142.941414
 30
0.0
 11
289.151387
 21
143.831691
 31
0.0
  0
LINE
  8
RIGHTSIDE
 10
289.151387
 20
132.777482
 30
0.0
 11
289.151387
 21
133.636582
 31
0.0
  0
LINE
  8
RIGHTSIDE
 10
290.445579
 20
133.636582
 30
0.0
 11
289.151387
 21
133.636582
 31
0.0
  0
LINE
  8
RIGHTSIDE
 10
290.445579
 20
142.941414
 30
0.0
 11
289.151387
 21
142.941414
 31
0.0
  0
LINE
  8
RIGHTSIDE
 10
290.445579
 20
143.831691
 30
0.0
 11
290.445579
 21
132.777482
 31
0.0
  0
LINE
  8
RIGHTSIDE
 10
293.144338
 20
132.777482
 30
0.0
 11
289.151387
 21
132.777482
 31
0.0
  0
LINE
  8
RIGHTSIDE
 10
293.144338
 20
143.831691
 30
0.0
 11
289.151387
 21
143.831691
 31
0.0
  0
LINE
  8
RIGHTSIDE
 10
293.144338
 20
143.831691
 30
0.0
 11
293.144338
 21
132.777482
 31
0.0
  0
LINE
  8
PLANVIEW
  6
DASHED
 10
185.194958
 20
254.496811
 30
0.0
 11
225.194958
 21
254.496811
 31
0.0
  0
ARC
  8
PLANVIEW
  6
DASHED
 10
221.194958
 20
247.965422
 30
0.0
 40
2.0
 50
270.0
 51
0.0
  0
ARC
  8
PLANVIEW
  6
DASHED
 10
189.194958
 20
247.965422
 30
0.0
 40
2.0
 50
180.0
 51
270.0
  0
LINE
  8
PLANVIEW
  6
DASHED
 10
223.194958
 20
247.965422
 30
0.0
 11
223.194958
 21
254.496811
 31
0.0
  0
CIRCLE
  8
PLANVIEW
 10
229.194958
 20
254.996811
 30
0.0
 40
1.5
  0
LINE
  8
PLANVIEW
  6
DASHED
 10
217.945438
 20
236.996811
 30
0.0
 11
192.444479
 21
236.996811
 31
0.0
  0
LINE
  8
PLANVIEW
  6
DASHED
 10
215.533311
 20
242.096811
 30
0.0
 11
215.533311
 21
245.965422
 31
0.0
  0
LINE
  8
PLANVIEW
  6
DASHED
 10
217.945438
 20
242.096811
 30
0.0
 11
192.444479
 21
242.096811
 31
0.0
  0
LINE
  8
PLANVIEW
  6
DASHED
 10
217.945438
 20
236.996811
 30
0.0
 11
217.945438
 21
242.096811
 31
0.0
  0
LINE
  8
PLANVIEW
  6
DASHED
 10
194.856606
 20
242.096811
 30
0.0
 11
194.856606
 21
245.965422
 31
0.0
  0
LINE
  8
PLANVIEW
  6
DASHED
 10
192.444479
 20
236.996811
 30
0.0
 11
192.444479
 21
242.096811
 31
0.0
  0
LINE
  8
PLANVIEW
  6
DASHED
 10
187.194958
 20
254.496811
 30
0.0
 11
187.194958
 21
247.965422
 31
0.0
  0
LINE
  8
PLANVIEW
  6
DASHED
 10
189.194958
 20
245.965422
 30
0.0
 11
221.194958
 21
245.965422
 31
0.0
  0
LINE
  8
PLANVIEW
  6
DASHED
 10
185.194958
 20
255.496811
 30
0.0
 11
225.194958
 21
255.496811
 31
0.0
  0
LINE
  8
PLANVIEW
  6
CONTINUOUS
 10
230.194958
 20
256.996811
 30
0.0
 11
228.194958
 21
256.996811
 31
0.0
  0
LINE
  8
RIGHTSIDE
 10
251.459378
 20
158.304587
 30
0.0
 11
240.032469
 21
158.304587
 31
0.0
  0
POLYLINE
  8
PLANVIEW
 66
     1
 10
0.0
 20
0.0
 30
0.0
 70
     4
 75
     6
  0
VERTEX
  8
PLANVIEW
 10
253.685388
 20
253.486991
 30
0.0
 70
    16
  0
VERTEX
  8
PLANVIEW
 10
253.685388
 20
253.486991
 30
0.0
 70
     8
  0
VERTEX
  8
PLANVIEW
 10
254.86948
 20
253.299682
 30
0.0
 70
     8
  0
VERTEX
  8
PLANVIEW
 10
255.809771
 20
253.171735
 30
0.0
 70
     8
  0
VERTEX
  8
PLANVIEW
 10
256.596476
 20
253.108728
 30
0.0
 70
     8
  0
VERTEX
  8
PLANVIEW
 10
257.31981
 20
253.116242
 30
0.0
 70
     8
  0
VERTEX
  8
PLANVIEW
 10
258.069988
 20
253.199856
 30
0.0
 70
     8
  0
VERTEX
  8
PLANVIEW
 10
258.937225
 20
253.365148
 30
0.0
 70
     8
  0
VERTEX
  8
PLANVIEW
 10
260.011735
 20
253.617698
 30
0.0
 70
     8
  0
VERTEX
  8
PLANVIEW
 10
261.383735
 20
253.963086
 30
0.0
 70
     8
  0
VERTEX
  8
PLANVIEW
 10
257.248226
 20
252.913311
 30
0.0
 70
    16
  0
VERTEX
  8
PLANVIEW
 10
261.383735
 20
253.963086
 30
0.0
 70
    16
  0
SEQEND
  8
PLANVIEW
  0
POLYLINE
  8
PLANVIEW
 66
     1
 10
0.0
 20
0.0
 30
0.0
 70
     4
 75
     6
  0
VERTEX
  8
PLANVIEW
 10
253.685388
 20
249.470735
 30
0.0
 70
    16
  0
VERTEX
  8
PLANVIEW
 10
253.685388
 20
249.470735
 30
0.0
 70
     8
  0
VERTEX
  8
PLANVIEW
 10
254.86948
 20
249.658044
 30
0.0
 70
     8
  0
VERTEX
  8
PLANVIEW
 10
255.809771
 20
249.785991
 30
0.0
 70
     8
  0
VERTEX
  8
PLANVIEW
 10
256.596476
 20
249.848997
 30
0.0
 70
     8
  0
VERTEX
  8
PLANVIEW
 10
257.31981
 20
249.841483
 30
0.0
 70
     8
  0
VERTEX
  8
PLANVIEW
 10
258.069988
 20
249.757869
 30
0.0
 70
     8
  0
VERTEX
  8
PLANVIEW
 10
258.937225
 20
249.592577
 30
0.0
 70
     8
  0
VERTEX
  8
PLANVIEW
 10
260.011735
 20
249.340027
 30
0.0
 70
     8
  0
VERTEX
  8
PLANVIEW
 10
261.383735
 20
248.99464
 30
0.0
 70
     8
  0
VERTEX
  8
PLANVIEW
 10
257.248226
 20
250.044415
 30
0.0
 70
    16
  0
VERTEX
  8
PLANVIEW
 10
261.383735
 20
248.99464
 30
0.0
 70
    16
  0
SEQEND
  8
PLANVIEW
  0
LINE
  8
PLANVIEW
 10
253.059378
 20
256.996811
 30
0.0
 11
290.794958
 21
256.996811
 31
0.0
  0
ARC
  8
FRONTVIEW
  6
CONTINUOUS
 10
134.529383
 20
138.304587
 30
0.0
 40
18.0
 50
121.325604
 51
58.674393
  0
ARC
  8
FRONTVIEW
  6
CONTINUOUS
 10
134.529383
 20
138.304587
 30
0.0
 40
20.0
 50
117.898767
 51
62.101229
  0
LINE
  8
FRONTVIEW
 10
120.529383
 20
114.804587
 30
0.0
 11
117.913035
 21
127.173685
 31
0.0
  0
LINE
  8
FRONTVIEW
  6
CENTER
 10
134.529383
 20
115.79853
 30
0.0
 11
134.529383
 21
166.881042
 31
0.0
  0
LINE
  8
RIGHTSIDE
 10
291.794958
 20
132.777482
 30
0.0
 11
291.794958
 21
118.304587
 31
0.0
  0
ARC
  8
FRONTVIEW
  6
DASHED
 10
134.529383
 20
138.304587
 30
0.0
 40
20.0
 50
62.101229
 51
117.898767
  0
ARC
  8
FRONTVIEW
  6
DASHED
 10
134.529383
 20
138.304587
 30
0.0
 40
18.0
 50
58.674393
 51
121.325604
  0
LINE
  8
PLANVIEW
  6
DASHED
 10
295.806457
 20
255.496811
 30
0.0
 11
295.806457
 21
254.496811
 31
0.0
  0
LINE
  8
PLANVIEW
  6
DASHED
 10
225.194958
 20
255.496811
 30
0.0
 11
225.194958
 21
254.496811
 31
0.0
  0
LINE
  8
RIGHTSIDE
  6
CONTINUOUS
 10
225.592396
 20
106.804587
 30
0.0
 11
208.471134
 21
106.804587
 31
0.0
  0
LINE
  8
RIGHTSIDE
  6
CONTINUOUS
 10
295.397521
 20
106.804587
 30
0.0
 11
312.518783
 21
106.804587
 31
0.0
  0
ARC
  8
PLANVIEW
  6
DASHED
 10
224.619833
 20
257.674049
 30
0.0
 40
39.484948
 50
91.173593
 51
180.101317
  0
ARC
  8
PLANVIEW
  6
DASHED
 10
296.370084
 20
257.674049
 30
0.0
 40
39.484948
 50
359.898683
 51
88.826407
  0
POLYLINE
  8
FRONTVIEW
  6
CONTINUOUS
 66
     1
 10
0.0
 20
0.0
 30
0.0
 70
     1
 40
0.045025
 41
0.045025
  0
VERTEX
  8
FRONTVIEW
  6
CONTINUOUS
 10
141.017948
 20
153.725346
 30
0.0
  0
VERTEX
  8
FRONTVIEW
  6
CONTINUOUS
 10
141.017948
 20
155.378301
 30
0.0
 42
0.414214
  0
VERTEX
  8
FRONTVIEW
  6
CONTINUOUS
 10
140.567699
 20
155.82855
 30
0.0
  0
VERTEX
  8
FRONTVIEW
  6
CONTINUOUS
 10
128.491067
 20
155.82855
 30
0.0
 42
0.414214
  0
VERTEX
  8
FRONTVIEW
  6
CONTINUOUS
 10
128.040818
 20
155.378301
 30
0.0
  0
VERTEX
  8
FRONTVIEW
  6
CONTINUOUS
 10
128.040818
 20
153.725346
 30
0.0
 42
0.414214
  0
VERTEX
  8
FRONTVIEW
  6
CONTINUOUS
 10
128.491067
 20
153.275097
 30
0.0
  0
VERTEX
  8
FRONTVIEW
  6
CONTINUOUS
 10
140.567699
 20
153.275097
 30
0.0
 42
0.414214
  0
SEQEND
  8
FRONTVIEW
  6
CONTINUOUS
  0
ARC
  8
FRONTVIEW
 10
134.453677
 20
153.968147
 30
0.0
 40
1.179424
 50
73.493764
 51
74.4082
  0
ARC
  8
FRONTVIEW
 10
134.537242
 20
154.250155
 30
0.0
 40
0.885296
 50
54.419527
 51
73.493591
  0
ARC
  8
FRONTVIEW
 10
134.665028
 20
154.428772
 30
0.0
 40
0.665675
 50
30.070114
 51
54.419544
  0
ARC
  8
FRONTVIEW
 10
134.860365
 20
154.541869
 30
0.0
 40
0.439959
 50
359.999979
 51
30.070151
  0
ARC
  8
FRONTVIEW
 10
134.950704
 20
154.51186
 30
0.0
 40
0.350906
 50
329.929866
 51
4.905749
  0
ARC
  8
FRONTVIEW
 10
134.637797
 20
154.693028
 30
0.0
 40
0.712475
 50
305.580464
 51
329.929893
  0
ARC
  8
FRONTVIEW
 10
134.537242
 20
154.833582
 30
0.0
 40
0.885296
 50
286.506409
 51
305.580473
  0
ARC
  8
FRONTVIEW
 10
134.453678
 20
155.115272
 30
0.0
 40
1.179414
 50
270.000045
 51
286.506319
  0
ARC
  8
FRONTVIEW
 10
134.242333
 20
154.654968
 30
0.0
 40
0.665678
 50
210.070176
 51
227.284945
  0
ARC
  8
FRONTVIEW
 10
134.046993
 20
154.541869
 30
0.0
 40
0.439959
 50
179.999984
 51
210.070156
  0
ARC
  8
FRONTVIEW
 10
134.046993
 20
154.541869
 30
0.0
 40
0.439959
 50
149.929849
 51
180.000021
  0
ARC
  8
FRONTVIEW
 10
134.242331
 20
154.428772
 30
0.0
 40
0.665675
 50
125.580444
 51
149.929874
  0
ARC
  8
FRONTVIEW
 10
134.370116
 20
154.250155
 30
0.0
 40
0.885296
 50
106.506409
 51
125.580473
  0
ARC
  8
FRONTVIEW
 10
134.453681
 20
153.968154
 30
0.0
 40
1.179417
 50
94.446912
 51
106.506318
  0
ARC
  8
FRONTVIEW
 10
134.45368
 20
155.115272
 30
0.0
 40
1.179414
 50
253.493681
 51
269.999955
  0
ARC
  8
FRONTVIEW
 10
134.370112
 20
154.833266
 30
0.0
 40
0.885287
 50
243.334254
 51
253.493685
  0
ARC
  8
FRONTVIEW
 10
134.510681
 20
155.533002
 30
0.0
 40
0.065163
 50
26.058138
 51
90.000027
  0
ARC
  8
FRONTVIEW
 10
133.553844
 20
155.065116
 30
0.0
 40
1.13027
 50
19.796937
 51
26.058266
  0
ARC
  8
FRONTVIEW
 10
137.410841
 20
154.671499
 30
0.0
 40
3.113057
 50
168.549831
 51
171.317764
  0
ARC
  8
FRONTVIEW
 10
135.467535
 20
155.065109
 30
0.0
 40
1.130289
 50
153.941824
 51
168.549851
  0
ARC
  8
FRONTVIEW
 10
134.51068
 20
155.533002
 30
0.0
 40
0.065163
 50
89.999937
 51
153.941826
  0
ARC
  8
FRONTVIEW
 10
132.013375
 20
154.335157
 30
0.0
 40
2.702022
 50
348.549808
 51
352.010674
  0
ARC
  8
FRONTVIEW
 10
133.553826
 20
154.023143
 30
0.0
 40
1.130289
 50
333.941804
 51
348.54983
  0
ARC
  8
FRONTVIEW
 10
134.510681
 20
153.55525
 30
0.0
 40
0.065163
 50
270.00003
 51
333.941919
  0
ARC
  8
FRONTVIEW
 10
134.510681
 20
153.55525
 30
0.0
 40
0.065163
 50
206.058117
 51
270.000006
  0
ARC
  8
FRONTVIEW
 10
135.467535
 20
154.023142
 30
0.0
 40
1.130289
 50
191.450154
 51
206.058181
  0
ARC
  8
FRONTVIEW
 10
137.008131
 20
154.335181
 30
0.0
 40
2.702169
 50
188.358819
 51
191.450083
  0
ARC
  8
FRONTVIEW
 10
132.020125
 20
150.68296
 30
0.0
 40
4.749104
 50
47.178359
 51
48.30991
  0
ARC
  8
FRONTVIEW
 10
134.111674
 20
152.939916
 30
0.0
 40
1.672023
 50
35.590662
 51
47.17836
  0
ARC
  8
FRONTVIEW
 10
135.428923
 20
153.882341
 30
0.0
 40
0.05218
 50
325.888644
 51
35.590677
  0
ARC
  8
FRONTVIEW
 10
136.449439
 20
157.937182
 30
0.0
 40
4.110145
 50
227.178319
 51
228.469064
  0
ARC
  8
FRONTVIEW
 10
134.7922
 20
156.148886
 30
0.0
 40
1.672023
 50
215.590671
 51
227.178369
  0
ARC
  8
FRONTVIEW
 10
133.47495
 20
155.206153
 30
0.0
 40
0.05218
 50
145.888644
 51
215.590677
  0
ARC
  8
FRONTVIEW
 10
133.47495
 20
155.206153
 30
0.0
 40
0.05218
 50
76.186623
 51
145.888656
  0
ARC
  8
FRONTVIEW
 10
133.088197
 20
153.633158
 30
0.0
 40
1.672022
 50
64.598944
 51
76.186642
  0
ARC
  8
FRONTVIEW
 10
132.042427
 20
151.430864
 30
0.0
 40
4.11
 50
61.707948
 51
64.599024
  0
ARC
  8
FRONTVIEW
 10
135.428923
 20
153.882341
 30
0.0
 40
0.05218
 50
256.186623
 51
325.888656
  0
ARC
  8
FRONTVIEW
 10
135.815677
 20
155.455336
 30
0.0
 40
1.672022
 50
244.598944
 51
256.186642
  0
ARC
  8
FRONTVIEW
 10
136.861527
 20
157.658096
 30
0.0
 40
4.110177
 50
241.807185
 51
244.598955
  0
ARC
  8
FRONTVIEW
 10
133.481492
 20
153.879043
 30
0.0
 40
0.045986
 50
142.874757
 51
214.376124
  0
ARC
  8
FRONTVIEW
 10
134.909329
 20
152.798496
 30
0.0
 40
1.836787
 50
132.266064
 51
142.874701
  0
ARC
  8
FRONTVIEW
 10
136.727369
 20
150.798112
 30
0.0
 40
4.539897
 50
131.136718
 51
132.26603
  0
ARC
  8
FRONTVIEW
 10
131.469667
 20
158.656159
 30
0.0
 40
5.249277
 50
296.485995
 51
298.480172
  0
ARC
  8
FRONTVIEW
 10
132.991566
 20
155.601524
 30
0.0
 40
1.836787
 50
285.877352
 51
296.485989
  0
ARC
  8
FRONTVIEW
 10
133.481492
 20
153.879043
 30
0.0
 40
0.045986
 50
214.375979
 51
285.877346
  0
ARC
  8
FRONTVIEW
 10
137.141576
 20
151.081052
 30
0.0
 40
4.540245
 50
116.486045
 51
119.187413
  0
ARC
  8
FRONTVIEW
 10
135.935886
 20
153.500764
 30
0.0
 40
1.836787
 50
105.877365
 51
116.486002
  0
ARC
  8
FRONTVIEW
 10
135.44596
 20
155.223244
 30
0.0
 40
0.045986
 50
34.376009
 51
105.877376
  0
ARC
  8
FRONTVIEW
 10
135.44596
 20
155.223244
 30
0.0
 40
0.045986
 50
322.87467
 51
34.376037
  0
ARC
  8
FRONTVIEW
 10
134.018124
 20
156.3041
 30
0.0
 40
1.836787
 50
312.266064
 51
322.874701
  0
ARC
  8
FRONTVIEW
 10
132.199724
 20
158.304878
 30
0.0
 40
4.54043
 50
310.789319
 51
312.26603
  0
ARC
  8
FRONTVIEW
 10
133.088573
 20
154.547869
 30
0.0
 40
0.050088
 50
107.770486
 51
179.999953
  0
ARC
  8
FRONTVIEW
 10
133.744238
 20
152.502089
 30
0.0
 40
2.19837
 50
97.562078
 51
107.770471
  0
ARC
  8
FRONTVIEW
 10
134.171343
 20
149.284824
 30
0.0
 40
5.443861
 50
95.609002
 51
97.562053
  0
ARC
  8
FRONTVIEW
 10
134.283473
 20
160.655539
 30
0.0
 40
6.295896
 50
262.437931
 51
264.068511
  0
ARC
  8
FRONTVIEW
 10
133.744238
 20
156.59365
 30
0.0
 40
2.19837
 50
252.229529
 51
262.437922
  0
ARC
  8
FRONTVIEW
 10
133.088573
 20
154.547869
 30
0.0
 40
0.050089
 50
180.000001
 51
252.229468
  0
ARC
  8
FRONTVIEW
 10
134.74931
 20
149.284855
 30
0.0
 40
5.44383
 50
82.437943
 51
84.517235
  0
ARC
  8
FRONTVIEW
 10
135.176412
 20
152.502089
 30
0.0
 40
2.19837
 50
72.229526
 51
82.437919
  0
ARC
  8
FRONTVIEW
 10
135.832077
 20
154.547869
 30
0.0
 40
0.050088
 50
0.000047
 51
72.229514
  0
ARC
  8
FRONTVIEW
 10
135.832077
 20
154.547869
 30
0.0
 40
0.050089
 50
287.770532
 51
359.999999
  0
ARC
  8
FRONTVIEW
 10
135.176412
 20
156.593649
 30
0.0
 40
2.19837
 50
277.562081
 51
287.770474
  0
ARC
  8
FRONTVIEW
 10
134.749314
 20
159.810864
 30
0.0
 40
5.44381
 50
275.603748
 51
277.562045
  0
LINE
  8
FRONTVIEW
 10
134.400133
 20
154.022526
 30
0.0
 11
134.379871
 21
153.938169
 31
0.0
  0
LINE
  8
FRONTVIEW
 10
134.57596
 20
154.098307
 30
0.0
 11
134.545374
 21
153.939428
 31
0.0
  0
LINE
  8
FRONTVIEW
 10
134.178164
 20
154.000892
 30
0.0
 11
134.172555
 21
153.969935
 31
0.0
  0
LINE
  8
FRONTVIEW
 10
134.42333
 20
154.024755
 30
0.0
 11
134.178164
 21
154.001201
 31
0.0
  0
LINE
  8
FRONTVIEW
 10
134.565142
 20
154.092052
 30
0.0
 11
134.42333
 21
154.024755
 31
0.0
  0
LINE
  8
FRONTVIEW
 10
134.714135
 20
154.178193
 30
0.0
 11
134.565142
 21
154.092052
 31
0.0
  0
LINE
  8
FRONTVIEW
 10
134.714135
 20
154.178193
 30
0.0
 11
135.130307
 21
154.178193
 31
0.0
  0
LINE
  8
FRONTVIEW
 10
134.40179
 20
154.537594
 30
0.0
 11
133.608512
 21
154.537594
 31
0.0
  0
LINE
  8
FRONTVIEW
 10
134.384497
 20
154.374909
 30
0.0
 11
133.639944
 21
154.374909
 31
0.0
  0
LINE
  8
FRONTVIEW
 10
133.841661
 20
154.372682
 30
0.0
 11
133.892649
 21
154.192
 31
0.0
  0
LINE
  8
FRONTVIEW
 10
133.808011
 20
154.53756
 30
0.0
 11
133.841661
 21
154.372682
 31
0.0
  0
LINE
  8
FRONTVIEW
 10
133.84807
 20
154.711861
 30
0.0
 11
133.808011
 21
154.53756
 31
0.0
  0
LINE
  8
FRONTVIEW
 10
133.938606
 20
154.931923
 30
0.0
 11
133.84807
 21
154.711861
 31
0.0
  0
LINE
  8
FRONTVIEW
 10
134.188367
 20
155.117343
 30
0.0
 11
133.938606
 21
154.931923
 31
0.0
  0
LINE
  8
FRONTVIEW
 10
134.046767
 20
154.372682
 30
0.0
 11
134.089231
 21
154.243471
 31
0.0
  0
LINE
  8
FRONTVIEW
 10
134.024334
 20
154.53756
 30
0.0
 11
134.046767
 21
154.372682
 31
0.0
  0
LINE
  8
FRONTVIEW
 10
134.049972
 20
154.711861
 30
0.0
 11
134.024334
 21
154.53756
 31
0.0
  0
LINE
  8
FRONTVIEW
 10
134.098044
 20
154.931923
 30
0.0
 11
134.049972
 21
154.711861
 31
0.0
  0
LINE
  8
FRONTVIEW
 10
134.246017
 20
155.129146
 30
0.0
 11
134.098044
 21
154.931923
 31
0.0
  0
LINE
  8
FRONTVIEW
 10
134.246265
 20
154.53756
 30
0.0
 11
134.273979
 21
154.308767
 31
0.0
  0
LINE
  8
FRONTVIEW
 10
134.284909
 20
154.911591
 30
0.0
 11
134.246265
 21
154.53756
 31
0.0
  0
LINE
  8
FRONTVIEW
 10
134.376862
 20
154.711861
 30
0.0
 11
133.642964
 21
154.711861
 31
0.0
  0
LINE
  8
FRONTVIEW
 10
134.27543
 20
154.932718
 30
0.0
 11
133.807404
 21
154.932718
 31
0.0
  0
LINE
  8
FRONTVIEW
 10
134.890428
 20
154.361914
 30
0.0
 11
135.26796
 21
154.361914
 31
0.0
  0
LINE
  8
FRONTVIEW
 10
134.722978
 20
154.254239
 30
0.0
 11
134.890428
 21
154.361914
 31
0.0
  0
LINE
  8
FRONTVIEW
 10
134.688706
 20
153.959512
 30
0.0
 11
134.722978
 21
154.254239
 31
0.0
  0
LINE
  8
FRONTVIEW
 10
134.684443
 20
154.566371
 30
0.0
 11
134.912598
 21
154.535466
 31
0.0
  0
LINE
  8
FRONTVIEW
 10
134.843958
 20
154.180212
 30
0.0
 11
134.791079
 21
153.984376
 31
0.0
  0
LINE
  8
FRONTVIEW
 10
135.054136
 20
154.184325
 30
0.0
 11
135.013812
 21
154.087341
 31
0.0
  0
LINE
  8
FRONTVIEW
 10
135.102208
 20
154.376123
 30
0.0
 11
135.054136
 21
154.184325
 31
0.0
  0
LINE
  8
FRONTVIEW
 10
135.123039
 20
154.541674
 30
0.0
 11
135.102208
 21
154.376123
 31
0.0
  0
LINE
  8
FRONTVIEW
 10
135.040524
 20
154.92283
 30
0.0
 11
135.014246
 21
154.995954
 31
0.0
  0
LINE
  8
FRONTVIEW
 10
135.040524
 20
154.92283
 30
0.0
 11
135.096336
 21
154.70715
 31
0.0
  0
LINE
  8
FRONTVIEW
 10
134.914464
 20
154.535542
 30
0.0
 11
135.299038
 21
154.535542
 31
0.0
  0
LINE
  8
FRONTVIEW
 10
134.785471
 20
154.925866
 30
0.0
 11
135.10777
 21
154.925866
 31
0.0
  0
LINE
  8
FRONTVIEW
 10
134.901744
 20
154.711214
 30
0.0
 11
134.912598
 21
154.535466
 31
0.0
  0
LINE
  8
FRONTVIEW
 10
134.845932
 20
154.926894
 30
0.0
 11
134.901744
 21
154.711214
 31
0.0
  0
LINE
  8
FRONTVIEW
 10
134.89203
 20
154.372009
 30
0.0
 11
134.843958
 21
154.180212
 31
0.0
  0
LINE
  8
FRONTVIEW
 10
134.912861
 20
154.53756
 30
0.0
 11
134.89203
 21
154.372009
 31
0.0
  0
LINE
  8
FRONTVIEW
 10
135.096336
 20
154.70715
 30
0.0
 11
135.122775
 21
154.539579
 31
0.0
  0
LINE
  8
FRONTVIEW
 10
134.846362
 20
154.925866
 30
0.0
 11
134.771851
 21
155.104204
 31
0.0
  0
LINE
  8
FRONTVIEW
 10
135.266401
 20
154.711276
 30
0.0
 11
134.745411
 21
154.711188
 31
0.0
  0
LINE
  8
FRONTVIEW
 10
134.440873
 20
155.219755
 30
0.0
 11
134.467588
 21
154.997777
 31
0.0
  0
LINE
  8
FRONTVIEW
 10
134.61211
 20
155.30027
 30
0.0
 11
134.635689
 21
155.151443
 31
0.0
  0
LINE
  8
FRONTVIEW
 10
134.549708
 20
155.118774
 30
0.0
 11
134.534056
 21
154.895414
 31
0.0
  0
LINE
  8
FRONTVIEW
 10
134.569221
 20
154.974546
 30
0.0
 11
134.549708
 21
155.118774
 31
0.0
  0
LINE
  8
FRONTVIEW
 10
134.573083
 20
155.151443
 30
0.0
 11
134.569221
 21
154.974546
 31
0.0
  0
LINE
  8
FRONTVIEW
 10
134.596459
 20
155.044482
 30
0.0
 11
134.573083
 21
155.151443
 31
0.0
  0
ARC
  8
FRONTVIEW
 10
135.03965
 20
155.151553
 30
0.0
 40
0.455942
 50
160.56057
 51
193.581845
  0
LINE
  8
FRONTVIEW
 10
134.542796
 20
155.185686
 30
0.0
 11
134.568277
 21
155.572582
 31
0.0
  0
LINE
  8
FRONTVIEW
 10
134.523719
 20
155.549869
 30
0.0
 11
134.542796
 21
155.185686
 31
0.0
  0
LINE
  8
FRONTVIEW
 10
134.50451
 20
155.288049
 30
0.0
 11
134.523719
 21
155.549869
 31
0.0
  0
LINE
  8
FRONTVIEW
 10
134.450412
 20
155.470219
 30
0.0
 11
134.50451
 21
155.288049
 31
0.0
  0
LINE
  8
FRONTVIEW
 10
134.440873
 20
155.219755
 30
0.0
 11
134.450412
 21
155.470219
 31
0.0
  0
LINE
  8
FRONTVIEW
 10
134.428068
 20
155.356343
 30
0.0
 11
134.440873
 21
155.219755
 31
0.0
  0
LINE
  8
FRONTVIEW
 10
134.40899
 20
155.178063
 30
0.0
 11
134.428068
 21
155.356343
 31
0.0
  0
LINE
  8
FRONTVIEW
 10
134.396184
 20
155.310762
 30
0.0
 11
134.40899
 21
155.178063
 31
0.0
  0
LINE
  8
FRONTVIEW
 10
134.362602
 20
155.149127
 30
0.0
 11
134.396184
 21
155.310762
 31
0.0
  0
ARC
  8
FRONTVIEW
 10
135.075427
 20
155.512764
 30
0.0
 40
0.510666
 50
173.273027
 51
204.21668
  0
ARC
  8
FRONTVIEW
 10
134.769041
 20
155.360704
 30
0.0
 40
0.169368
 50
118.145776
 51
199.813636
  0
LINE
  8
FRONTVIEW
 10
134.131184
 20
154.083489
 30
0.0
 11
134.129486
 21
154.11958
 31
0.0
  0
LINE
  8
FRONTVIEW
 10
134.168164
 20
154.035263
 30
0.0
 11
134.14791
 21
154.087378
 31
0.0
  0
LINE
  8
FRONTVIEW
 10
134.114328
 20
154.248857
 30
0.0
 11
133.790768
 21
154.16587
 31
0.0
  0
LINE
  8
FRONTVIEW
 10
134.34862
 20
154.954823
 30
0.0
 11
134.362602
 21
155.149127
 31
0.0
  0
LINE
  8
FRONTVIEW
 10
134.330065
 20
155.10479
 30
0.0
 11
134.34862
 21
154.954823
 31
0.0
  0
LINE
  8
FRONTVIEW
 10
134.306675
 20
154.927132
 30
0.0
 11
134.330065
 21
155.10479
 31
0.0
  0
LINE
  8
FRONTVIEW
 10
134.292693
 20
155.015961
 30
0.0
 11
134.306675
 21
154.927132
 31
0.0
  0
LINE
  8
FRONTVIEW
 10
134.274138
 20
154.927132
 30
0.0
 11
134.292693
 21
155.015961
 31
0.0
  0
ARC
  8
FRONTVIEW
 10
134.85689
 20
155.408757
 30
0.0
 40
0.195951
 50
148.875368
 51
216.031052
  0
ARC
  8
FRONTVIEW
 10
133.715271
 20
154.528306
 30
0.0
 40
0.686582
 50
342.873466
 51
35.512937
  0
ARC
  8
FRONTVIEW
 10
134.049719
 20
154.942272
 30
0.0
 40
0.737684
 50
329.36484
 51
28.431967
  0
LINE
  8
FRONTVIEW
 10
134.250748
 20
154.302995
 30
0.0
 11
134.114328
 21
154.248857
 31
0.0
  0
LINE
  8
FRONTVIEW
 10
134.334638
 20
154.323841
 30
0.0
 11
134.250748
 21
154.302995
 31
0.0
  0
ARC
  8
FRONTVIEW
 10
134.354802
 20
154.296265
 30
0.0
 40
0.034161
 50
295.777135
 51
126.174908
  0
LINE
  8
FRONTVIEW
 10
134.201746
 20
154.223966
 30
0.0
 11
134.369658
 21
154.265503
 31
0.0
  0
ARC
  8
FRONTVIEW
 10
134.326998
 20
154.565501
 30
0.0
 40
0.363777
 50
249.86037
 51
306.718536
  0
LINE
  8
FRONTVIEW
 10
134.516532
 20
154.461207
 30
0.0
 11
134.544495
 21
154.273904
 31
0.0
  0
LINE
  8
FRONTVIEW
 10
134.548023
 20
154.477853
 30
0.0
 11
134.516532
 21
154.461207
 31
0.0
  0
LINE
  8
FRONTVIEW
 10
134.575987
 20
154.465407
 30
0.0
 11
134.548023
 21
154.477853
 31
0.0
  0
LINE
  8
FRONTVIEW
 10
134.600422
 20
154.41127
 30
0.0
 11
134.628386
 21
154.219766
 31
0.0
  0
LINE
  8
FRONTVIEW
 10
134.575987
 20
154.469452
 30
0.0
 11
134.600422
 21
154.41127
 31
0.0
  0
LINE
  8
FRONTVIEW
 10
134.589969
 20
154.486098
 30
0.0
 11
134.575987
 21
154.469452
 31
0.0
  0
LINE
  8
FRONTVIEW
 10
134.614404
 20
154.494498
 30
0.0
 11
134.589969
 21
154.486098
 31
0.0
  0
LINE
  8
FRONTVIEW
 10
134.635442
 20
154.473652
 30
0.0
 11
134.614404
 21
154.494498
 31
0.0
  0
LINE
  8
FRONTVIEW
 10
134.677387
 20
154.269703
 30
0.0
 11
134.635442
 21
154.473652
 31
0.0
  0
LINE
  8
FRONTVIEW
 10
134.670331
 20
154.511144
 30
0.0
 11
134.729786
 21
154.540235
 31
0.0
  0
LINE
  8
FRONTVIEW
 10
134.659877
 20
154.448762
 30
0.0
 11
134.670331
 21
154.511144
 31
0.0
  0
LINE
  8
FRONTVIEW
 10
134.677387
 20
154.269703
 30
0.0
 11
134.659877
 21
154.448762
 31
0.0
  0
LINE
  8
FRONTVIEW
 10
134.761278
 20
154.352932
 30
0.0
 11
134.729786
 21
154.540235
 31
0.0
  0
ARC
  8
FRONTVIEW
 10
134.788887
 20
154.473973
 30
0.0
 40
0.051313
 50
319.077108
 51
161.449207
  0
ARC
  8
FRONTVIEW
 10
134.099378
 20
154.886118
 30
0.0
 40
0.853868
 50
274.559046
 51
328.530496
  0
LINE
  8
FRONTVIEW
 10
134.084263
 20
153.995398
 30
0.0
 11
134.167249
 21
154.034952
 31
0.0
  0
TEXT
  8
FRONTVIEW
 10
136.299059
 20
154.26378
 30
0.0
 40
0.746909
  1
Brooks
  7
ROMANT
  0
TEXT
  8
FRONTVIEW
 10
128.326872
 20
154.256637
 30
0.0
 40
0.746909
  1
Cleaver
  7
ROMANT
  0
ENDSEC
  0
EOF
