  0
SECTION
  2
HEADER
  9
$ACADVER
  1
AC1009
  9
$INSBASE
 10
0.0
 20
0.0
 30
0.0
  9
$EXTMIN
 10
114.979153
 20
60.649409
 30
0.0
  9
$EXTMAX
 10
604.004477
 20
446.220791
 30
0.0
  9
$LIMMIN
 10
0.0
 20
0.0
  9
$LIMMAX
 10
550.0
 20
500.0
  9
$ORTHOMODE
 70
     1
  9
$REGENMODE
 70
     1
  9
$FILLMODE
 70
     1
  9
$QTEXTMODE
 70
     0
  9
$MIRRTEXT
 70
     1
  9
$DRAGMODE
 70
     2
  9
$LTSCALE
 40
4.0
  9
$OSMODE
 70
     0
  9
$ATTMODE
 70
     1
  9
$TEXTSIZE
 40
5.0
  9
$TRACEWID
 40
0.05
  9
$TEXTSTYLE
  7
ROMANS
  9
$CLAYER
  8
0
  9
$CELTYPE
  6
CONTINUOUS
  9
$CECOLOR
 62
   256
  9
$DIMSCALE
 40
1.0
  9
$DIMASZ
 40
5.0
  9
$DIMEXO
 40
0.0625
  9
$DIMDLI
 40
0.38
  9
$DIMRND
 40
0.0
  9
$DIMDLE
 40
0.0
  9
$DIMEXE
 40
0.18
  9
$DIMTP
 40
0.0
  9
$DIMTM
 40
0.0
  9
$DIMTXT
 40
4.0
  9
$DIMCEN
 40
0.09
  9
$DIMTSZ
 40
0.0
  9
$DIMTOL
 70
     0
  9
$DIMLIM
 70
     0
  9
$DIMTIH
 70
     1
  9
$DIMTOH
 70
     1
  9
$DIMSE1
 70
     0
  9
$DIMSE2
 70
     0
  9
$DIMTAD
 70
     0
  9
$DIMZIN
 70
     0
  9
$DIMBLK
  1

  9
$DIMASO
 70
     1
  9
$DIMSHO
 70
     0
  9
$DIMPOST
  1

  9
$DIMAPOST
  1

  9
$DIMALT
 70
     0
  9
$DIMALTD
 70
     2
  9
$DIMALTF
 40
25.4
  9
$DIMLFAC
 40
1.0
  9
$DIMTOFL
 70
     0
  9
$DIMTVP
 40
0.0
  9
$DIMTIX
 70
     0
  9
$DIMSOXD
 70
     0
  9
$DIMSAH
 70
     0
  9
$DIMBLK1
  1

  9
$DIMBLK2
  1

  9
$DIMSTYLE
  2
*UNNAMED
  9
$DIMCLRD
 70
     0
  9
$DIMCLRE
 70
     0
  9
$DIMCLRT
 70
     0
  9
$DIMTFAC
 40
1.0
  9
$DIMGAP
 40
0.09
  9
$LUNITS
 70
     2
  9
$LUPREC
 70
     4
  9
$AXISMODE
 70
     0
  9
$AXISUNIT
 10
0.0
 20
0.0
  9
$SKETCHINC
 40
0.1
  9
$FILLETRAD
 40
0.5
  9
$AUNITS
 70
     0
  9
$AUPREC
 70
     0
  9
$MENU
  1
acad
  9
$ELEVATION
 40
0.0
  9
$PELEVATION
 40
0.0
  9
$THICKNESS
 40
0.0
  9
$LIMCHECK
 70
     0
  9
$BLIPMODE
 70
     0
  9
$CHAMFERA
 40
0.0
  9
$CHAMFERB
 40
0.0
  9
$SKPOLY
 70
     0
  9
$TDCREATE
 40
2449668.570434838
  9
$TDUPDATE
 40
2449721.663190972
  9
$TDINDWG
 40
0.0335440972
  9
$TDUSRTIMER
 40
0.0335440972
  9
$USRTIMER
 70
     1
  9
$ANGBASE
 50
0.0
  9
$ANGDIR
 70
     0
  9
$PDMODE
 70
     0
  9
$PDSIZE
 40
0.0
  9
$PLINEWID
 40
0.0
  9
$COORDS
 70
     0
  9
$SPLFRAME
 70
     0
  9
$SPLINETYPE
 70
     6
  9
$SPLINESEGS
 70
     8
  9
$ATTDIA
 70
     1
  9
$ATTREQ
 70
     1
  9
$HANDLING
 70
     0
  9
$HANDSEED
  5
0
  9
$SURFTAB1
 70
     6
  9
$SURFTAB2
 70
     6
  9
$SURFTYPE
 70
     6
  9
$SURFU
 70
     6
  9
$SURFV
 70
     6
  9
$UCSNAME
  2

  9
$UCSORG
 10
0.0
 20
0.0
 30
0.0
  9
$UCSXDIR
 10
1.0
 20
0.0
 30
0.0
  9
$UCSYDIR
 10
0.0
 20
1.0
 30
0.0
  9
$PUCSNAME
  2

  9
$PUCSORG
 10
0.0
 20
0.0
 30
0.0
  9
$PUCSXDIR
 10
1.0
 20
0.0
 30
0.0
  9
$PUCSYDIR
 10
0.0
 20
1.0
 30
0.0
  9
$USERI1
 70
     0
  9
$USERI2
 70
     0
  9
$USERI3
 70
     0
  9
$USERI4
 70
     0
  9
$USERI5
 70
     0
  9
$USERR1
 40
0.0
  9
$USERR2
 40
0.0
  9
$USERR3
 40
0.0
  9
$USERR4
 40
0.0
  9
$USERR5
 40
0.0
  9
$WORLDVIEW
 70
     1
  9
$SHADEDGE
 70
     3
  9
$SHADEDIF
 70
    70
  9
$TILEMODE
 70
     1
  9
$MAXACTVP
 70
    16
  9
$PINSBASE
 10
0.0
 20
0.0
 30
0.0
  9
$PLIMCHECK
 70
     0
  9
$PEXTMIN
 10
1.000000E+20
 20
1.000000E+20
 30
1.000000E+20
  9
$PEXTMAX
 10
-1.000000E+20
 20
-1.000000E+20
 30
-1.000000E+20
  9
$PLIMMIN
 10
0.0
 20
0.0
  9
$PLIMMAX
 10
12.0
 20
9.0
  9
$UNITMODE
 70
     1
  9
$VISRETAIN
 70
     0
  0
ENDSEC
  0
SECTION
  2
TABLES
  0
TABLE
  2
VPORT
 70
     2
  0
VPORT
  2
*ACTIVE
 70
     0
 10
0.0
 20
0.0
 11
1.0
 21
1.0
 12
377.555292
 22
255.681247
 13
0.0
 23
0.0
 14
1.0
 24
1.0
 15
0.0
 25
0.0
 16
0.0
 26
0.0
 36
1.0
 17
0.0
 27
0.0
 37
0.0
 40
389.87745
 41
1.346968
 42
50.0
 43
0.0
 44
0.0
 50
0.0
 51
0.0
 71
     0
 72
   100
 73
     1
 74
     0
 75
     0
 76
     0
 77
     0
 78
     1
  0
ENDTAB
  0
TABLE
  2
LTYPE
 70
     3
  0
LTYPE
  2
CONTINUOUS
 70
    64
  3
Solid line
 72
    65
 73
     0
 40
0.0
  0
LTYPE
  2
DASHED
 70
    64
  3
__ __ __ __ __ __ __ __ __ __ __ __ __ __ __
 72
    65
 73
     2
 40
0.75
 49
0.5
 49
-0.25
  0
LTYPE
  2
CENTER
 70
    64
  3
____ _ ____ _ ____ _ ____ _ ____ _ ____ _ ____
 72
    65
 73
     4
 40
2.0
 49
1.25
 49
-0.25
 49
0.25
 49
-0.25
  0
ENDTAB
  0
TABLE
  2
LAYER
 70
     5
  0
LAYER
  2
0
 70
    64
 62
     7
  6
CONTINUOUS
  0
LAYER
  2
RIGHTSIDE
 70
    64
 62
     1
  6
CONTINUOUS
  0
LAYER
  2
PLANVIEW
 70
    64
 62
     2
  6
CONTINUOUS
  0
LAYER
  2
FRONTVIEW
 70
    64
 62
     3
  6
CONTINUOUS
  0
LAYER
  2
CAPTIONS
 70
    64
 62
     4
  6
CONTINUOUS
  0
ENDTAB
  0
TABLE
  2
STYLE
 70
     4
  0
STYLE
  2
STANDARD
 70
    64
 40
0.0
 41
1.0
 50
0.0
 71
     0
 42
5.5385
  3
txt
  4

  0
STYLE
  2
ROMANS
 70
    64
 40
0.0
 41
1.0
 50
0.0
 71
     0
 42
5.0
  3
ROMANS
  4

  0
STYLE
  2
ROMANT
 70
    64
 40
0.0
 41
1.0
 50
0.0
 71
     0
 42
5.5385
  3
ROMANT
  4

  0
STYLE
  2
ROMAND
 70
    64
 40
0.0
 41
1.0
 50
0.0
 71
     0
 42
2.0
  3
ROMAND
  4

  0
ENDTAB
  0
TABLE
  2
VIEW
 70
     0
  0
ENDTAB
  0
TABLE
  2
UCS
 70
     0
  0
ENDTAB
  0
TABLE
  2
APPID
 70
     1
  0
APPID
  2
ACAD
 70
    64
  0
ENDTAB
  0
TABLE
  2
DIMSTYLE
 70
     0
  0
ENDTAB
  0
ENDSEC
  0
SECTION
  2
BLOCKS
  0
BLOCK
  8
0
  2
GETDAT
 70
    66
 10
0.0
 20
0.0
 30
0.0
  1
GETDAT
  3
GETDAT
  0
ATTDEF
  8
0
 10
0.0
 20
0.0
 30
0.0
 40
1.0
  1
DIMDIAG
  3
DRAWING NAME.(10 CHARS): 
  2
DWGNAM
 70
     1
  0
ATTDEF
  8
0
 10
0.0
 20
0.0
 30
0.0
 40
1.0
  1
B
  3
DRAWING SIZE...(1 CHAR): 
  2
DWGSIZ
 70
     1
  0
ATTDEF
  8
0
 10
0.0
 20
0.0
 30
0.0
 40
1.0
  1
00
  3
REVISION......(2 CHARS): 
  2
DWGREV
 70
     1
  0
ATTDEF
  8
0
 10
0.0
 20
0.0
 30
0.0
 40
1.0
  1
01
  3
SHEET NUMBER..(2 CHARS): 
  2
DWGSHT
 70
     1
  0
ATTDEF
  8
0
 10
0.0
 20
0.0
 30
0.0
 40
1.0
  1
01
  3
OF............(2 CHARS): 
  2
DWGOF
 70
     1
  0
ATTDEF
  8
0
 10
0.0
 20
0.0
 30
0.0
 40
1.0
  1
 
  3
DISTRIBUTION..(2 CHARS): 
  2
DWGDIST
 70
     1
  0
ATTDEF
  8
0
 10
0.0
 20
0.0
 30
0.0
 40
1.0
  1
01
  3
QUANTITY......(2 CHARS): 
  2
DWGQUAN
 70
     1
  0
ATTDEF
  8
0
 10
0.0
 20
0.0
 30
0.0
 40
1.0
  1
 
  3
DESCRIPTION..(31 CHARS): 
  2
DWGDESC
 70
     1
  0
ATTDEF
  8
0
 10
0.0
 20
0.0
 30
0.0
 40
1.0
  1
 
  3
YOUR NAME....(17 CHARS): 
  2
DRWN
 70
     1
  0
ATTDEF
  8
0
 10
0.0
 20
0.0
 30
0.0
 40
1.0
  1
10/14/92
  3
TODAY'S DATE..(8 CHARS): 
  2
DATE
 70
     1
  0
ATTDEF
  8
0
 10
0.0
 20
0.0
 30
0.0
 40
1.0
  1
01 
  3
FILE..........(3 CHARS): 
  2
FILE
 70
     1
  0
ENDBLK
  8
0
  0
ENDSEC
  0
SECTION
  2
ENTITIES
  0
POLYLINE
  8
CAPTIONS
 66
     1
 10
0.0
 20
0.0
 30
0.0
 70
     1
 40
0.666667
 41
0.666667
  0
VERTEX
  8
CAPTIONS
 10
470.276022
 20
213.439276
 30
0.0
 42
1.0
  0
VERTEX
  8
CAPTIONS
 10
470.942688
 20
213.439276
 30
0.0
 42
1.0
  0
SEQEND
  8
CAPTIONS
  0
CIRCLE
  8
CAPTIONS
 10
470.609355
 20
213.439276
 30
0.0
 40
3.733186
  0
TEXT
  8
CAPTIONS
 10
477.165491
 20
190.420825
 30
0.0
 40
6.129332
  1
jurisdictional requirements.
  7
ROMANS
  0
TEXT
  8
CAPTIONS
 10
477.165491
 20
200.344505
 30
0.0
 40
6.129332
  1
clearance consult local
  7
ROMANS
  0
TEXT
  8
CAPTIONS
 10
477.165491
 20
210.268185
 30
0.0
 40
6.129332
  1
For minimum aisle 
  7
ROMANS
  0
TEXT
  8
CAPTIONS
 10
311.181914
 20
423.763712
 30
0.0
 40
5.0
  1
CB & CBH  70 & 80 HP 
  7
ROMAND
  0
ARC
  8
CAPTIONS
 10
363.012798
 20
66.051368
 30
0.0
 40
13.097472
 50
73.493764
 51
74.4082
  0
ARC
  8
CAPTIONS
 10
363.940786
 20
69.183058
 30
0.0
 40
9.831184
 50
54.419527
 51
73.493591
  0
ARC
  8
CAPTIONS
 10
365.359841
 20
71.166597
 30
0.0
 40
7.392302
 50
30.070114
 51
54.419544
  0
ARC
  8
CAPTIONS
 10
367.529055
 20
72.422531
 30
0.0
 40
4.885738
 50
359.999979
 51
30.070151
  0
ARC
  8
CAPTIONS
 10
368.532267
 20
72.089288
 30
0.0
 40
3.896801
 50
329.929866
 51
4.905749
  0
ARC
  8
CAPTIONS
 10
365.057446
 20
74.101148
 30
0.0
 40
7.912018
 50
305.580464
 51
329.929893
  0
ARC
  8
CAPTIONS
 10
363.940786
 20
75.662002
 30
0.0
 40
9.831184
 50
286.506409
 51
305.580473
  0
ARC
  8
CAPTIONS
 10
363.01281
 20
78.790157
 30
0.0
 40
13.097364
 50
270.000045
 51
286.506319
  0
ARC
  8
CAPTIONS
 10
360.665826
 20
73.678489
 30
0.0
 40
7.392338
 50
210.070176
 51
227.741303
  0
ARC
  8
CAPTIONS
 10
358.496583
 20
72.422528
 30
0.0
 40
4.885736
 50
179.999984
 51
210.070156
  0
ARC
  8
CAPTIONS
 10
358.496584
 20
72.422531
 30
0.0
 40
4.885738
 50
149.929849
 51
180.000021
  0
ARC
  8
CAPTIONS
 10
360.665799
 20
71.166595
 30
0.0
 40
7.392304
 50
125.580444
 51
149.929874
  0
ARC
  8
CAPTIONS
 10
362.084855
 20
69.183058
 30
0.0
 40
9.831184
 50
106.506409
 51
125.580473
  0
ARC
  8
CAPTIONS
 10
363.012839
 20
66.051448
 30
0.0
 40
13.097395
 50
94.417361
 51
106.506318
  0
ARC
  8
CAPTIONS
 10
363.01283
 20
78.790157
 30
0.0
 40
13.097364
 50
253.493681
 51
269.999955
  0
ARC
  8
CAPTIONS
 10
362.084811
 20
75.658486
 30
0.0
 40
9.831085
 50
251.627947
 51
253.493685
  0
ARC
  8
CAPTIONS
 10
363.645819
 20
83.429035
 30
0.0
 40
0.723632
 50
26.058138
 51
90.000027
  0
ARC
  8
CAPTIONS
 10
353.02017
 20
78.233175
 30
0.0
 40
12.551623
 50
19.796937
 51
26.058266
  0
ARC
  8
CAPTIONS
 10
395.852021
 20
73.862066
 30
0.0
 40
34.57041
 50
168.549831
 51
171.020329
  0
ARC
  8
CAPTIONS
 10
374.271662
 20
78.233102
 30
0.0
 40
12.551829
 50
153.941824
 51
168.549851
  0
ARC
  8
CAPTIONS
 10
363.645818
 20
83.429034
 30
0.0
 40
0.723632
 50
89.999937
 51
153.941826
  0
ARC
  8
CAPTIONS
 10
335.913304
 20
70.127004
 30
0.0
 40
30.005881
 50
348.549808
 51
352.045725
  0
ARC
  8
CAPTIONS
 10
353.01998
 20
66.662091
 30
0.0
 40
12.551828
 50
333.941804
 51
348.54983
  0
ARC
  8
CAPTIONS
 10
363.645819
 20
61.466154
 30
0.0
 40
0.723632
 50
270.00003
 51
333.941919
  0
ARC
  8
CAPTIONS
 10
363.645819
 20
61.466155
 30
0.0
 40
0.723632
 50
206.058117
 51
270.000006
  0
ARC
  8
CAPTIONS
 10
374.271658
 20
66.662087
 30
0.0
 40
12.551827
 50
191.450154
 51
206.058181
  0
ARC
  8
CAPTIONS
 10
391.379941
 20
70.127272
 30
0.0
 40
30.007509
 50
188.358819
 51
191.450083
  0
ARC
  8
CAPTIONS
 10
335.988269
 20
29.569447
 30
0.0
 40
52.738673
 50
47.178359
 51
48.173695
  0
ARC
  8
CAPTIONS
 10
359.214859
 20
54.632887
 30
0.0
 40
18.567771
 50
35.590662
 51
47.17836
  0
ARC
  8
CAPTIONS
 10
373.842881
 20
65.09849
 30
0.0
 40
0.579453
 50
325.888644
 51
35.590677
  0
ARC
  8
CAPTIONS
 10
385.175678
 20
110.12739
 30
0.0
 40
45.643056
 50
227.178319
 51
228.469064
  0
ARC
  8
CAPTIONS
 10
366.772081
 20
90.268415
 30
0.0
 40
18.567768
 50
215.590671
 51
227.178369
  0
ARC
  8
CAPTIONS
 10
352.144063
 20
79.799386
 30
0.0
 40
0.579453
 50
145.888644
 51
215.590677
  0
ARC
  8
CAPTIONS
 10
352.144064
 20
79.799386
 30
0.0
 40
0.579454
 50
76.186623
 51
145.888656
  0
ARC
  8
CAPTIONS
 10
347.849178
 20
62.331321
 30
0.0
 40
18.567765
 50
64.598944
 51
76.186642
  0
ARC
  8
CAPTIONS
 10
336.235934
 20
37.874902
 30
0.0
 40
45.64144
 50
61.736217
 51
64.599024
  0
ARC
  8
CAPTIONS
 10
373.84288
 20
65.09849
 30
0.0
 40
0.579454
 50
256.186623
 51
325.888656
  0
ARC
  8
CAPTIONS
 10
378.137767
 20
82.566555
 30
0.0
 40
18.567765
 50
244.598944
 51
256.186642
  0
ARC
  8
CAPTIONS
 10
389.751902
 20
107.028151
 30
0.0
 40
45.643404
 50
241.807185
 51
244.598955
  0
ARC
  8
CAPTIONS
 10
352.216708
 20
65.061867
 30
0.0
 40
0.510671
 50
142.874757
 51
214.376124
  0
ARC
  8
CAPTIONS
 10
368.072798
 20
53.062417
 30
0.0
 40
20.397466
 50
132.266064
 51
142.874701
  0
ARC
  8
CAPTIONS
 10
388.262088
 20
30.848214
 30
0.0
 40
50.415431
 50
131.286278
 51
132.26603
  0
ARC
  8
CAPTIONS
 10
329.875445
 20
118.111618
 30
0.0
 40
58.293083
 50
296.485995
 51
298.153044
  0
ARC
  8
CAPTIONS
 10
346.776098
 20
84.189971
 30
0.0
 40
20.397466
 50
285.877352
 51
296.485989
  0
ARC
  8
CAPTIONS
 10
352.216708
 20
65.061866
 30
0.0
 40
0.51067
 50
214.375979
 51
285.877346
  0
ARC
  8
CAPTIONS
 10
392.86184
 20
33.990255
 30
0.0
 40
50.419304
 50
116.486045
 51
119.066308
  0
ARC
  8
CAPTIONS
 10
379.472693
 20
60.861084
 30
0.0
 40
20.397468
 50
105.877365
 51
116.486002
  0
ARC
  8
CAPTIONS
 10
374.032077
 20
79.989189
 30
0.0
 40
0.510671
 50
34.376009
 51
105.877376
  0
ARC
  8
CAPTIONS
 10
374.032077
 20
79.989189
 30
0.0
 40
0.510671
 50
322.87467
 51
34.376037
  0
ARC
  8
CAPTIONS
 10
358.175988
 20
91.992064
 30
0.0
 40
20.397466
 50
312.266064
 51
322.874701
  0
ARC
  8
CAPTIONS
 10
337.982713
 20
114.210651
 30
0.0
 40
50.421355
 50
310.99866
 51
312.26603
  0
ARC
  8
CAPTIONS
 10
347.853348
 20
72.489165
 30
0.0
 40
0.556231
 50
107.770486
 51
179.999953
  0
ARC
  8
CAPTIONS
 10
355.134494
 20
49.77083
 30
0.0
 40
24.41284
 50
97.562078
 51
107.770471
  0
ARC
  8
CAPTIONS
 10
359.877487
 20
14.043188
 30
0.0
 40
60.453934
 50
95.609002
 51
97.562053
  0
ARC
  8
CAPTIONS
 10
361.122682
 20
140.314677
 30
0.0
 40
69.915761
 50
262.437931
 51
263.989935
  0
ARC
  8
CAPTIONS
 10
355.134494
 20
95.2075
 30
0.0
 40
24.41284
 50
252.229529
 51
262.437922
  0
ARC
  8
CAPTIONS
 10
347.853349
 20
72.489166
 30
0.0
 40
0.556232
 50
180.000001
 51
252.229468
  0
ARC
  8
CAPTIONS
 10
366.295798
 20
14.043527
 30
0.0
 40
60.453592
 50
82.437943
 51
84.316515
  0
ARC
  8
CAPTIONS
 10
371.038749
 20
49.770835
 30
0.0
 40
24.412836
 50
72.229526
 51
82.437919
  0
ARC
  8
CAPTIONS
 10
378.319895
 20
72.489165
 30
0.0
 40
0.556231
 50
0.000047
 51
72.229514
  0
ARC
  8
CAPTIONS
 10
378.319894
 20
72.489166
 30
0.0
 40
0.556232
 50
287.770532
 51
359.999999
  0
ARC
  8
CAPTIONS
 10
371.038749
 20
95.207496
 30
0.0
 40
24.412836
 50
277.562081
 51
287.770474
  0
ARC
  8
CAPTIONS
 10
366.295839
 20
130.934584
 30
0.0
 40
60.45337
 50
275.76689
 51
277.562045
  0
TEXT
  8
CAPTIONS
 10
256.712672
 20
437.220791
 30
0.0
 40
9.0
  1
Cleaver-Brooks Layout Guide
  7
ROMAND
  0
LINE
  8
CAPTIONS
 10
362.399978
 20
66.579414
 30
0.0
 11
362.19534
 21
65.727452
 31
0.0
  0
LINE
  8
CAPTIONS
 10
364.357378
 20
67.427328
 30
0.0
 11
364.019281
 21
65.671091
 31
0.0
  0
LINE
  8
CAPTIONS
 10
359.953227
 20
66.415
 30
0.0
 11
359.890946
 21
66.071225
 31
0.0
  0
LINE
  8
CAPTIONS
 10
362.675793
 20
66.679993
 30
0.0
 11
359.953227
 21
66.418426
 31
0.0
  0
LINE
  8
CAPTIONS
 10
364.25061
 20
67.427328
 30
0.0
 11
362.675793
 21
66.679993
 31
0.0
  0
LINE
  8
CAPTIONS
 10
365.905172
 20
68.383917
 30
0.0
 11
364.25061
 21
67.427328
 31
0.0
  0
LINE
  8
CAPTIONS
 10
365.905172
 20
68.383917
 30
0.0
 11
370.567674
 21
68.383917
 31
0.0
  0
LINE
  8
CAPTIONS
 10
362.436592
 20
72.375061
 30
0.0
 11
353.627267
 21
72.375061
 31
0.0
  0
LINE
  8
CAPTIONS
 10
362.244559
 20
70.568445
 30
0.0
 11
353.97426
 21
70.568445
 31
0.0
  0
LINE
  8
CAPTIONS
 10
356.216373
 20
70.543716
 30
0.0
 11
356.785799
 21
68.52591
 31
0.0
  0
LINE
  8
CAPTIONS
 10
355.842688
 20
72.374687
 30
0.0
 11
356.216373
 21
70.543716
 31
0.0
  0
LINE
  8
CAPTIONS
 10
356.287551
 20
74.310284
 30
0.0
 11
355.842688
 21
72.374687
 31
0.0
  0
LINE
  8
CAPTIONS
 10
357.292943
 20
76.754069
 30
0.0
 11
356.287551
 21
74.310284
 31
0.0
  0
LINE
  8
CAPTIONS
 10
360.066534
 20
78.813151
 30
0.0
 11
357.292943
 21
76.754069
 31
0.0
  0
LINE
  8
CAPTIONS
 10
358.494075
 20
70.543716
 30
0.0
 11
358.96563
 21
69.108832
 31
0.0
  0
LINE
  8
CAPTIONS
 10
358.244952
 20
72.374687
 30
0.0
 11
358.494075
 21
70.543716
 31
0.0
  0
LINE
  8
CAPTIONS
 10
358.529664
 20
74.310284
 30
0.0
 11
358.244952
 21
72.374687
 31
0.0
  0
LINE
  8
CAPTIONS
 10
359.063501
 20
76.754069
 30
0.0
 11
358.529664
 21
74.310284
 31
0.0
  0
LINE
  8
CAPTIONS
 10
360.70674
 20
78.944224
 30
0.0
 11
359.063501
 21
76.754069
 31
0.0
  0
LINE
  8
CAPTIONS
 10
360.709495
 20
72.374687
 30
0.0
 11
361.020901
 21
69.803854
 31
0.0
  0
LINE
  8
CAPTIONS
 10
361.138628
 20
76.528284
 30
0.0
 11
360.709495
 21
72.374687
 31
0.0
  0
LINE
  8
CAPTIONS
 10
362.159763
 20
74.310287
 30
0.0
 11
354.009849
 21
74.310287
 31
0.0
  0
LINE
  8
CAPTIONS
 10
361.033365
 20
76.762904
 30
0.0
 11
355.835947
 21
76.762904
 31
0.0
  0
LINE
  8
CAPTIONS
 10
367.862903
 20
70.424142
 30
0.0
 11
372.044622
 21
70.424142
 31
0.0
  0
LINE
  8
CAPTIONS
 10
366.003373
 20
69.228405
 30
0.0
 11
367.862903
 21
70.424142
 31
0.0
  0
LINE
  8
CAPTIONS
 10
365.629687
 20
66.014865
 30
0.0
 11
366.003373
 21
69.228405
 31
0.0
  0
LINE
  8
CAPTIONS
 10
365.575451
 20
72.694623
 30
0.0
 11
368.1091
 21
72.351424
 31
0.0
  0
LINE
  8
CAPTIONS
 10
367.346861
 20
68.406337
 30
0.0
 11
366.759641
 21
66.231593
 31
0.0
  0
LINE
  8
CAPTIONS
 10
369.680874
 20
68.452019
 30
0.0
 11
369.233083
 21
67.375015
 31
0.0
  0
LINE
  8
CAPTIONS
 10
370.21471
 20
70.581924
 30
0.0
 11
369.680874
 21
68.452019
 31
0.0
  0
LINE
  8
CAPTIONS
 10
370.446039
 20
72.420369
 30
0.0
 11
370.21471
 21
70.581924
 31
0.0
  0
LINE
  8
CAPTIONS
 10
369.529714
 20
76.653094
 30
0.0
 11
369.259775
 21
77.404251
 31
0.0
  0
LINE
  8
CAPTIONS
 10
369.529714
 20
76.653094
 30
0.0
 11
370.149503
 21
74.257971
 31
0.0
  0
LINE
  8
CAPTIONS
 10
368.129822
 20
72.352266
 30
0.0
 11
372.400512
 21
72.352266
 31
0.0
  0
LINE
  8
CAPTIONS
 10
366.69736
 20
76.68681
 30
0.0
 11
370.220681
 21
76.68681
 31
0.0
  0
LINE
  8
CAPTIONS
 10
367.98857
 20
74.303106
 30
0.0
 11
368.1091
 21
72.351424
 31
0.0
  0
LINE
  8
CAPTIONS
 10
367.368783
 20
76.698229
 30
0.0
 11
367.98857
 21
74.303106
 31
0.0
  0
LINE
  8
CAPTIONS
 10
367.880698
 20
70.536242
 30
0.0
 11
367.346861
 21
68.406337
 31
0.0
  0
LINE
  8
CAPTIONS
 10
368.112027
 20
72.374687
 30
0.0
 11
367.880698
 21
70.536242
 31
0.0
  0
LINE
  8
CAPTIONS
 10
370.149503
 20
74.257971
 30
0.0
 11
370.443112
 21
72.397106
 31
0.0
  0
LINE
  8
CAPTIONS
 10
367.373553
 20
76.68681
 30
0.0
 11
366.546107
 21
78.667247
 31
0.0
  0
LINE
  8
CAPTIONS
 10
372.038079
 20
74.303793
 30
0.0
 11
366.252497
 21
74.302811
 31
0.0
  0
LINE
  8
CAPTIONS
 10
362.870613
 20
79.950437
 30
0.0
 11
363.167281
 21
77.48538
 31
0.0
  0
LINE
  8
CAPTIONS
 10
364.77219
 20
80.844552
 30
0.0
 11
365.034031
 21
79.191839
 31
0.0
  0
LINE
  8
CAPTIONS
 10
364.079212
 20
78.829048
 30
0.0
 11
363.905403
 21
76.348636
 31
0.0
  0
LINE
  8
CAPTIONS
 10
364.295909
 20
77.227395
 30
0.0
 11
364.079212
 21
78.829048
 31
0.0
  0
LINE
  8
CAPTIONS
 10
364.338797
 20
79.191839
 30
0.0
 11
364.295909
 21
77.227395
 31
0.0
  0
LINE
  8
CAPTIONS
 10
364.598381
 20
78.004036
 30
0.0
 11
364.338797
 21
79.191839
 31
0.0
  0
ARC
  8
CAPTIONS
 10
369.520011
 20
79.193053
 30
0.0
 40
5.063221
 50
160.56057
 51
193.581845
  0
LINE
  8
CAPTIONS
 10
364.002466
 20
79.572098
 30
0.0
 11
364.285428
 21
83.868576
 31
0.0
  0
LINE
  8
CAPTIONS
 10
363.790606
 20
83.61635
 30
0.0
 11
364.002466
 21
79.572098
 31
0.0
  0
LINE
  8
CAPTIONS
 10
363.577295
 20
80.708842
 30
0.0
 11
363.790606
 21
83.61635
 31
0.0
  0
LINE
  8
CAPTIONS
 10
362.976543
 20
82.731832
 30
0.0
 11
363.577295
 21
80.708842
 31
0.0
  0
LINE
  8
CAPTIONS
 10
362.870613
 20
79.950437
 30
0.0
 11
362.976543
 21
82.731832
 31
0.0
  0
LINE
  8
CAPTIONS
 10
362.728406
 20
81.467247
 30
0.0
 11
362.870613
 21
79.950437
 31
0.0
  0
LINE
  8
CAPTIONS
 10
362.516546
 20
79.487447
 30
0.0
 11
362.728406
 21
81.467247
 31
0.0
  0
LINE
  8
CAPTIONS
 10
362.374339
 20
80.961068
 30
0.0
 11
362.516546
 21
79.487447
 31
0.0
  0
LINE
  8
CAPTIONS
 10
362.001408
 20
79.166118
 30
0.0
 11
362.374339
 21
80.961068
 31
0.0
  0
ARC
  8
CAPTIONS
 10
369.917314
 20
83.204293
 30
0.0
 40
5.670927
 50
173.273027
 51
204.21668
  0
ARC
  8
CAPTIONS
 10
366.514907
 20
81.515672
 30
0.0
 40
1.880825
 50
118.145776
 51
199.813636
  0
LINE
  8
CAPTIONS
 10
359.431522
 20
67.332231
 30
0.0
 11
359.412658
 21
67.733028
 31
0.0
  0
LINE
  8
CAPTIONS
 10
359.842182
 20
66.796684
 30
0.0
 11
359.617263
 21
67.375421
 31
0.0
  0
LINE
  8
CAPTIONS
 10
359.244331
 20
69.168644
 30
0.0
 11
355.728333
 21
68.266849
 31
0.0
  0
LINE
  8
CAPTIONS
 10
361.846141
 20
77.008377
 30
0.0
 11
362.001408
 21
79.166118
 31
0.0
  0
LINE
  8
CAPTIONS
 10
361.640086
 20
78.673759
 30
0.0
 11
361.846141
 21
77.008377
 31
0.0
  0
LINE
  8
CAPTIONS
 10
361.38034
 20
76.700869
 30
0.0
 11
361.640086
 21
78.673759
 31
0.0
  0
LINE
  8
CAPTIONS
 10
361.225074
 20
77.687314
 30
0.0
 11
361.38034
 21
76.700869
 31
0.0
  0
LINE
  8
CAPTIONS
 10
361.019018
 20
76.700869
 30
0.0
 11
361.225074
 21
77.687314
 31
0.0
  0
ARC
  8
CAPTIONS
 10
367.490468
 20
82.049299
 30
0.0
 40
2.176029
 50
148.875368
 51
216.031052
  0
ARC
  8
CAPTIONS
 10
354.812814
 20
72.271912
 30
0.0
 40
7.624476
 50
344.447646
 51
35.512937
  0
ARC
  8
CAPTIONS
 10
358.52685
 20
76.868994
 30
0.0
 40
8.191957
 50
329.36484
 51
28.431967
  0
LINE
  8
CAPTIONS
 10
360.759273
 20
69.769839
 30
0.0
 11
359.244331
 21
69.168644
 31
0.0
  0
LINE
  8
CAPTIONS
 10
361.690874
 20
70.001334
 30
0.0
 11
360.759273
 21
69.769839
 31
0.0
  0
ARC
  8
CAPTIONS
 10
361.914793
 20
69.695106
 30
0.0
 40
0.379362
 50
295.777135
 51
126.174908
  0
LINE
  8
CAPTIONS
 10
360.215113
 20
68.892231
 30
0.0
 11
362.079767
 21
69.353494
 31
0.0
  0
ARC
  8
CAPTIONS
 10
361.606032
 20
72.684966
 30
0.0
 40
4.039739
 50
249.86037
 51
306.718536
  0
LINE
  8
CAPTIONS
 10
363.710796
 20
71.526782
 30
0.0
 11
364.02133
 21
69.446783
 31
0.0
  0
LINE
  8
CAPTIONS
 10
364.060509
 20
71.711633
 30
0.0
 11
363.710796
 21
71.526782
 31
0.0
  0
LINE
  8
CAPTIONS
 10
364.371043
 20
71.573427
 30
0.0
 11
364.060509
 21
71.711633
 31
0.0
  0
LINE
  8
CAPTIONS
 10
364.642397
 20
70.972231
 30
0.0
 11
364.952931
 21
68.845587
 31
0.0
  0
LINE
  8
CAPTIONS
 10
364.371043
 20
71.618344
 30
0.0
 11
364.642397
 21
70.972231
 31
0.0
  0
LINE
  8
CAPTIONS
 10
364.52631
 20
71.803195
 30
0.0
 11
364.371043
 21
71.618344
 31
0.0
  0
LINE
  8
CAPTIONS
 10
364.797664
 20
71.896483
 30
0.0
 11
364.52631
 21
71.803195
 31
0.0
  0
LINE
  8
CAPTIONS
 10
365.031291
 20
71.664989
 30
0.0
 11
364.797664
 21
71.896483
 31
0.0
  0
LINE
  8
CAPTIONS
 10
365.497091
 20
69.400138
 30
0.0
 11
365.031291
 21
71.664989
 31
0.0
  0
LINE
  8
CAPTIONS
 10
365.418733
 20
72.081334
 30
0.0
 11
366.07898
 21
72.40439
 31
0.0
  0
LINE
  8
CAPTIONS
 10
365.302644
 20
71.388576
 30
0.0
 11
365.418733
 21
72.081334
 31
0.0
  0
LINE
  8
CAPTIONS
 10
365.497091
 20
69.400138
 30
0.0
 11
365.302644
 21
71.388576
 31
0.0
  0
LINE
  8
CAPTIONS
 10
366.428693
 20
70.32439
 30
0.0
 11
366.07898
 21
72.40439
 31
0.0
  0
ARC
  8
CAPTIONS
 10
366.73529
 20
71.66855
 30
0.0
 40
0.56983
 50
319.077108
 51
161.449207
  0
ARC
  8
CAPTIONS
 10
359.078319
 20
76.245413
 30
0.0
 40
9.482187
 50
274.559046
 51
328.530496
  0
LINE
  8
CAPTIONS
 10
358.994743
 20
66.394159
 30
0.0
 11
359.832024
 21
66.793228
 31
0.0
  0
TEXT
  8
CAPTIONS
 10
295.768295
 20
65.494239
 30
0.0
 40
2.7648
  1
DIV., AQUA-CHEM INC.
  7
ROMANS
  0
TEXT
  8
CAPTIONS
 10
382.693852
 20
65.414919
 30
0.0
 40
2.7648
  1
MILWAUKEE,WISCONSIN
  7
ROMANS
  0
TEXT
  8
CAPTIONS
 10
385.031068
 20
71.37826
 30
0.0
 40
8.2944
  1
Brooks
  7
ROMANT
  0
TEXT
  8
CAPTIONS
 10
296.500151
 20
71.29894
 30
0.0
 40
8.2944
  1
Cleaver
  7
ROMANT
  0
INSERT
  8
0
 66
     1
  2
GETDAT
 10
0.0
 20
-269.951032
 30
0.0
  0
ATTRIB
  8
0
 10
0.0
 20
-269.951032
 30
0.0
 40
1.0
  1
96" DIM.DIAG.PROTOTYPE
  2
DWGNAM
 70
     1
  0
ATTRIB
  8
0
 10
0.0
 20
-269.951032
 30
0.0
 40
1.0
  1
B
  2
DWGSIZ
 70
     1
  0
ATTRIB
  8
0
 10
0.0
 20
-269.951032
 30
0.0
 40
1.0
  1
00
  2
DWGREV
 70
     1
  0
ATTRIB
  8
0
 10
0.0
 20
-269.951032
 30
0.0
 40
1.0
  1
01
  2
DWGSHT
 70
     1
  0
ATTRIB
  8
0
 10
0.0
 20
-269.951032
 30
0.0
 40
1.0
  1
01
  2
DWGOF
 70
     1
  0
ATTRIB
  8
0
 10
0.0
 20
-269.951032
 30
0.0
 40
1.0
  1
 
  2
DWGDIST
 70
     1
  0
ATTRIB
  8
0
 10
0.0
 20
-269.951032
 30
0.0
 40
1.0
  1
01
  2
DWGQUAN
 70
     1
  0
ATTRIB
  8
0
 10
0.0
 20
-269.951032
 30
0.0
 40
1.0
  1
96" DIM. DIAG. PROTOTYPE 
  2
DWGDESC
 70
     1
  0
ATTRIB
  8
0
 10
0.0
 20
-269.951032
 30
0.0
 40
1.0
  1
D. KLEIST 
  2
DRWN
 70
     1
  0
ATTRIB
  8
0
 10
0.0
 20
-269.951032
 30
0.0
 40
1.0
  1
10/14/92
  2
DATE
 70
     1
  0
ATTRIB
  8
0
 10
0.0
 20
-269.951032
 30
0.0
 40
1.0
  1
01 
  2
FILE
 70
     1
  0
SEQEND
  8
0
  0
TEXT
  8
CAPTIONS
 10
333.399211
 20
414.838768
 30
0.0
 40
5.0
  1
SCALE - 1"=1"
  7
ROMAND
  0
LINE
  8
CAPTIONS
  6
DASHED
 10
206.753619
 20
229.561076
 30
0.0
 11
505.753619
 21
229.561076
 31
0.0
  0
LINE
  8
CAPTIONS
  6
DASHED
 10
505.753619
 20
288.435262
 30
0.0
 11
505.753619
 21
229.561076
 31
0.0
  0
LINE
  8
CAPTIONS
  6
DASHED
 10
573.753619
 20
246.132129
 30
0.0
 11
264.753619
 21
246.132129
 31
0.0
  0
LINE
  8
CAPTIONS
  6
DASHED
 10
573.753619
 20
290.246435
 30
0.0
 11
573.753619
 21
246.132129
 31
0.0
  0
ARC
  8
PLANVIEW
  6
CONTINUOUS
 10
351.401742
 20
295.967495
 30
0.0
 40
5.882039
 50
109.487312
 51
179.861012
  0
LINE
  8
PLANVIEW
 10
339.681706
 20
302.239116
 30
0.0
 11
323.643825
 21
302.239116
 31
0.0
  0
ARC
  8
PLANVIEW
  6
DASHED
 10
453.624499
 20
308.493478
 30
0.0
 40
52.312853
 50
357.169851
 51
90.364346
  0
ARC
  8
PLANVIEW
  6
DASHED
 10
316.88274
 20
308.493478
 30
0.0
 40
52.312853
 50
89.635654
 51
182.830149
  0
LINE
  8
PLANVIEW
 10
350.215718
 20
289.127345
 30
0.0
 11
350.215718
 21
290.206269
 31
0.0
  0
LINE
  8
PLANVIEW
 10
351.11325
 20
287.627345
 30
0.0
 11
351.11325
 21
286.534248
 31
0.0
  0
LINE
  8
PLANVIEW
  6
CONTINUOUS
 10
349.914484
 20
289.127345
 30
0.0
 11
349.914484
 21
287.627345
 31
0.0
  0
LINE
  8
PLANVIEW
  6
CONTINUOUS
 10
351.414484
 20
289.127345
 30
0.0
 11
349.914484
 21
289.127345
 31
0.0
  0
LINE
  8
PLANVIEW
  6
CONTINUOUS
 10
351.414484
 20
287.627345
 30
0.0
 11
351.414484
 21
289.127345
 31
0.0
  0
LINE
  8
PLANVIEW
  6
CONTINUOUS
 10
349.914484
 20
287.627345
 30
0.0
 11
351.414484
 21
287.627345
 31
0.0
  0
LINE
  8
PLANVIEW
 10
349.077776
 20
286.534248
 30
0.0
 11
349.077776
 21
285.727495
 31
0.0
  0
LINE
  8
PLANVIEW
 10
352.251192
 20
286.534248
 30
0.0
 11
352.251192
 21
285.727495
 31
0.0
  0
LINE
  8
PLANVIEW
 10
352.251192
 20
286.534248
 30
0.0
 11
349.077776
 21
286.534248
 31
0.0
  0
LINE
  8
PLANVIEW
 10
351.11325
 20
290.092535
 30
0.0
 11
351.11325
 21
289.127345
 31
0.0
  0
LINE
  8
PLANVIEW
 10
350.215718
 20
286.534248
 30
0.0
 11
350.215718
 21
287.627345
 31
0.0
  0
LINE
  8
PLANVIEW
  6
CONTINUOUS
 10
353.154162
 20
301.582422
 30
0.0
 11
354.978847
 21
302.217495
 31
0.0
  0
LINE
  8
PLANVIEW
 10
353.154162
 20
290.352568
 30
0.0
 11
354.978847
 21
289.717495
 31
0.0
  0
ARC
  8
PLANVIEW
  6
CONTINUOUS
 10
351.401742
 20
295.967495
 30
0.0
 40
5.882039
 50
72.666845
 51
88.333154
  0
ARC
  8
PLANVIEW
 10
351.401742
 20
295.967495
 30
0.0
 40
5.882039
 50
179.861012
 51
287.333155
  0
LINE
  8
PLANVIEW
 10
352.251192
 20
285.727495
 30
0.0
 11
349.077776
 21
285.727495
 31
0.0
  0
LINE
  8
PLANVIEW
 10
450.753619
 20
360.727495
 30
0.0
 11
450.753619
 21
306.727495
 31
0.0
  0
LINE
  8
PLANVIEW
 10
449.420286
 20
306.727495
 30
0.0
 11
449.420286
 21
360.727495
 31
0.0
  0
LINE
  8
PLANVIEW
 10
452.086952
 20
360.727495
 30
0.0
 11
452.086952
 21
306.727495
 31
0.0
  0
CIRCLE
  8
PLANVIEW
 10
450.753619
 20
304.727496
 30
0.0
 40
2.0
  0
LINE
  8
PLANVIEW
  6
DASHED
 10
453.17257
 20
303.351036
 30
0.0
 11
453.17257
 21
304.684369
 31
0.0
  0
LINE
  8
PLANVIEW
 10
308.053619
 20
316.72686
 30
0.0
 11
308.053619
 21
350.72813
 31
0.0
  0
LINE
  8
PLANVIEW
  6
CENTER
 10
471.834762
 20
333.727495
 30
0.0
 11
299.441509
 21
333.727495
 31
0.0
  0
LINE
  8
PLANVIEW
 10
351.572838
 20
306.727495
 30
0.0
 11
452.086952
 21
306.727495
 31
0.0
  0
LINE
  8
PLANVIEW
  6
DASHED
 10
264.753619
 20
304.727496
 30
0.0
 11
317.75362
 21
304.727496
 31
0.0
  0
LINE
  8
PLANVIEW
  6
DASHED
 10
270.152346
 20
294.256133
 30
0.0
 11
312.819002
 21
294.256133
 31
0.0
  0
LINE
  8
PLANVIEW
  6
DASHED
 10
267.48568
 20
303.394163
 30
0.0
 11
267.48568
 21
296.922799
 31
0.0
  0
LINE
  8
PLANVIEW
  6
DASHED
 10
317.75362
 20
303.394163
 30
0.0
 11
317.75362
 21
304.727496
 31
0.0
  0
LINE
  8
PLANVIEW
  6
DASHED
 10
274.485039
 20
286.227496
 30
0.0
 11
274.485039
 21
293.027494
 31
0.0
  0
LINE
  8
PLANVIEW
  6
DASHED
 10
308.48631
 20
286.227496
 30
0.0
 11
308.48631
 21
293.027494
 31
0.0
  0
LINE
  8
PLANVIEW
  6
DASHED
 10
308.48631
 20
293.027494
 30
0.0
 11
274.485039
 21
293.027494
 31
0.0
  0
LINE
  8
PLANVIEW
  6
DASHED
 10
308.48631
 20
286.227496
 30
0.0
 11
274.485039
 21
286.227496
 31
0.0
  0
CIRCLE
  8
PLANVIEW
 10
319.753619
 20
304.727496
 30
0.0
 40
2.0
  0
LINE
  8
PLANVIEW
  6
DASHED
 10
315.485668
 20
296.922799
 30
0.0
 11
315.485668
 21
303.394163
 31
0.0
  0
ARC
  8
PLANVIEW
  6
DASHED
 10
270.152346
 20
296.922799
 30
0.0
 40
2.666666
 50
180.0
 51
270.0
  0
ARC
  8
PLANVIEW
  6
DASHED
 10
312.819002
 20
296.922799
 30
0.0
 40
2.666666
 50
270.0
 51
0.0
  0
LINE
  8
PLANVIEW
  6
DASHED
 10
264.753619
 20
303.394163
 30
0.0
 11
317.75362
 21
303.394163
 31
0.0
  0
LINE
  8
PLANVIEW
 10
468.079794
 20
337.178868
 30
0.0
 11
469.253619
 21
337.178868
 31
0.0
  0
LINE
  8
PLANVIEW
 10
468.079794
 20
330.276122
 30
0.0
 11
469.253619
 21
330.276122
 31
0.0
  0
LINE
  8
PLANVIEW
 10
469.253619
 20
337.178868
 30
0.0
 11
469.253619
 21
330.276122
 31
0.0
  0
LINE
  8
PLANVIEW
 10
468.079794
 20
337.178868
 30
0.0
 11
468.079794
 21
330.276122
 31
0.0
  0
LINE
  8
PLANVIEW
 10
466.05281
 20
335.469434
 30
0.0
 11
468.079794
 21
335.469434
 31
0.0
  0
LINE
  8
PLANVIEW
 10
466.05281
 20
331.985557
 30
0.0
 11
468.079794
 21
331.985557
 31
0.0
  0
ARC
  8
PLANVIEW
  6
CONTINUOUS
 10
350.506171
 20
333.727495
 30
0.0
 40
2.205666
 50
298.920975
 51
241.079025
  0
ARC
  8
PLANVIEW
  6
CONTINUOUS
 10
350.506171
 20
333.727495
 30
0.0
 40
1.067984
 50
357.153517
 51
182.846483
  0
ARC
  8
PLANVIEW
  6
CONTINUOUS
 10
350.506171
 20
295.981764
 30
0.0
 40
1.066836
 50
181.021808
 51
358.978192
  0
LINE
  8
PLANVIEW
 10
351.572838
 20
295.962739
 30
0.0
 11
351.572838
 21
333.674459
 31
0.0
  0
LINE
  8
PLANVIEW
 10
349.439505
 20
295.962739
 30
0.0
 11
349.439505
 21
333.674459
 31
0.0
  0
ARC
  8
PLANVIEW
 10
350.506171
 20
295.967495
 30
0.0
 40
3.283921
 50
108.954359
 51
71.045641
  0
LINE
  8
PLANVIEW
 10
369.32443
 20
302.217495
 30
0.0
 11
369.32443
 21
289.717495
 31
0.0
  0
LINE
  8
PLANVIEW
 10
354.978847
 20
302.217495
 30
0.0
 11
369.32443
 21
302.217495
 31
0.0
  0
LINE
  8
PLANVIEW
 10
354.978847
 20
289.717495
 30
0.0
 11
369.32443
 21
289.717495
 31
0.0
  0
LINE
  8
PLANVIEW
  6
DASHED
 10
304.294037
 20
309.727501
 30
0.0
 11
206.753619
 21
309.727501
 31
0.0
  0
LINE
  8
PLANVIEW
  6
DASHED
 10
304.294037
 20
357.727489
 30
0.0
 11
206.753619
 21
357.727489
 31
0.0
  0
LINE
  8
PLANVIEW
  6
DASHED
 10
455.086965
 20
303.351036
 30
0.0
 11
455.086965
 21
292.048361
 31
0.0
  0
LINE
  8
PLANVIEW
  6
DASHED
 10
477.32969
 20
289.381695
 30
0.0
 11
477.32969
 21
287.354711
 31
0.0
  0
LINE
  8
PLANVIEW
  6
DASHED
 10
480.813566
 20
289.381695
 30
0.0
 11
480.813566
 21
287.354711
 31
0.0
  0
LINE
  8
PLANVIEW
  6
DASHED
 10
482.523001
 20
287.354711
 30
0.0
 11
475.620255
 21
287.354711
 31
0.0
  0
LINE
  8
PLANVIEW
  6
DASHED
 10
573.753619
 20
309.727501
 30
0.0
 11
472.932754
 21
309.727501
 31
0.0
  0
LINE
  8
PLANVIEW
  6
DASHED
 10
573.753619
 20
357.727489
 30
0.0
 11
472.932754
 21
357.727489
 31
0.0
  0
LINE
  8
PLANVIEW
 10
318.420286
 20
360.727495
 30
0.0
 11
318.420286
 21
306.727495
 31
0.0
  0
CIRCLE
  8
PLANVIEW
 10
328.148419
 20
333.727495
 30
0.0
 40
5.333332
  0
ARC
  8
PLANVIEW
  6
DASHED
 10
500.404956
 20
292.048361
 30
0.0
 40
2.666666
 50
270.0
 51
0.0
  0
ARC
  8
PLANVIEW
  6
DASHED
 10
457.753631
 20
292.048361
 30
0.0
 40
2.666666
 50
180.0
 51
270.0
  0
ARC
  8
PLANVIEW
 10
463.386954
 20
356.060829
 30
0.0
 40
2.666666
 50
0.0
 51
90.0
  0
ARC
  8
PLANVIEW
 10
463.386954
 20
311.394161
 30
0.0
 40
2.666666
 50
270.0
 51
0.0
  0
ARC
  8
PLANVIEW
 10
312.264848
 20
311.394161
 30
0.0
 40
2.666666
 50
180.0
 51
270.0
  0
ARC
  8
PLANVIEW
 10
312.264848
 20
356.060829
 30
0.0
 40
2.666666
 50
90.0
 51
180.0
  0
TEXT
  8
PLANVIEW
 10
343.576449
 20
272.791769
 30
0.0
 40
5.0
  1
PLAN VIEW
  7
ROMANS
 72
     4
 11
363.814545
 21
275.291769
 31
0.0
  0
LINE
  8
PLANVIEW
 10
463.386954
 20
308.727495
 30
0.0
 11
452.086952
 21
308.727495
 31
0.0
  0
LINE
  8
PLANVIEW
 10
321.086952
 20
337.487237
 30
0.0
 11
321.086952
 21
360.727495
 31
0.0
  0
LINE
  8
PLANVIEW
 10
312.264848
 20
308.727495
 30
0.0
 11
318.420286
 21
308.727495
 31
0.0
  0
LINE
  8
PLANVIEW
 10
323.643825
 20
294.239116
 30
0.0
 11
323.643825
 21
302.239116
 31
0.0
  0
LINE
  8
PLANVIEW
 10
339.681706
 20
294.239116
 30
0.0
 11
323.643825
 21
294.239116
 31
0.0
  0
LINE
  8
PLANVIEW
 10
339.681706
 20
302.239116
 30
0.0
 11
339.681706
 21
294.239116
 31
0.0
  0
CIRCLE
  8
PLANVIEW
 10
328.148419
 20
333.727495
 30
0.0
 40
7.999998
  0
LINE
  8
PLANVIEW
  6
DASHED
 10
264.819014
 20
304.727496
 30
0.0
 11
264.819014
 21
303.394163
 31
0.0
  0
LINE
  8
PLANVIEW
 10
466.050037
 20
311.255963
 30
0.0
 11
466.050037
 21
356.199028
 31
0.0
  0
LINE
  8
PLANVIEW
 10
452.086952
 20
358.727495
 30
0.0
 11
463.386954
 21
358.727495
 31
0.0
  0
LINE
  8
PLANVIEW
  6
DASHED
 10
482.523001
 20
286.180886
 30
0.0
 11
475.620255
 21
286.180886
 31
0.0
  0
LINE
  8
PLANVIEW
 10
475.620255
 20
287.354711
 30
0.0
 11
475.620255
 21
286.180886
 31
0.0
  0
LINE
  8
PLANVIEW
  6
DASHED
 10
482.523001
 20
287.354711
 30
0.0
 11
482.523001
 21
286.180886
 31
0.0
  0
LINE
  8
PLANVIEW
 10
301.253619
 20
316.72686
 30
0.0
 11
301.253619
 21
350.72813
 31
0.0
  0
LINE
  8
PLANVIEW
 10
301.253619
 20
316.72686
 30
0.0
 11
308.053617
 21
316.72686
 31
0.0
  0
LINE
  8
PLANVIEW
 10
301.253619
 20
350.72813
 30
0.0
 11
308.053617
 21
350.72813
 31
0.0
  0
LINE
  8
PLANVIEW
 10
452.086952
 20
360.727495
 30
0.0
 11
318.420286
 21
360.727495
 31
0.0
  0
LINE
  8
PLANVIEW
 10
321.086952
 20
306.727495
 30
0.0
 11
321.086952
 21
329.967753
 31
0.0
  0
LINE
  8
PLANVIEW
 10
318.420286
 20
358.727495
 30
0.0
 11
312.264848
 21
358.727495
 31
0.0
  0
LINE
  8
PLANVIEW
 10
309.598182
 20
356.060829
 30
0.0
 11
309.598182
 21
311.394161
 31
0.0
  0
LINE
  8
PLANVIEW
  6
DASHED
 10
505.753619
 20
304.684369
 30
0.0
 11
505.753619
 21
303.351036
 31
0.0
  0
LINE
  8
PLANVIEW
  6
DASHED
 10
503.071622
 20
303.351036
 30
0.0
 11
503.071622
 21
292.048361
 31
0.0
  0
LINE
  8
PLANVIEW
  6
DASHED
 10
457.753631
 20
289.381695
 30
0.0
 11
498.420288
 21
289.381695
 31
0.0
  0
LINE
  8
PLANVIEW
 10
319.753619
 20
360.727495
 30
0.0
 11
319.753619
 21
306.727495
 31
0.0
  0
LINE
  8
PLANVIEW
 10
318.420286
 20
306.727495
 30
0.0
 11
349.439505
 21
306.727495
 31
0.0
  0
LINE
  8
PLANVIEW
  6
DASHED
 10
573.753619
 20
357.727489
 30
0.0
 11
573.753619
 21
309.727501
 31
0.0
  0
LINE
  8
PLANVIEW
  6
DASHED
 10
505.753619
 20
304.684369
 30
0.0
 11
453.17257
 21
304.684369
 31
0.0
  0
LINE
  8
PLANVIEW
  6
DASHED
 10
505.753619
 20
303.351036
 30
0.0
 11
453.17257
 21
303.351036
 31
0.0
  0
TEXT
  8
CAPTIONS
  6
CONTINUOUS
 10
212.075177
 20
231.638792
 30
0.0
 40
5.333332
  1
Distance required for tube removal from front
  7
ROMANS
  0
TEXT
  8
CAPTIONS
  6
CONTINUOUS
 10
269.165011
 20
248.209845
 30
0.0
 40
5.333332
  1
Distance required for tube removal from rear
  7
ROMANS
  0
LINE
  8
CAPTIONS
  6
DASHED
 10
264.753619
 20
290.246435
 30
0.0
 11
264.753619
 21
246.132129
 31
0.0
  0
LINE
  8
CAPTIONS
  6
DASHED
 10
206.753619
 20
303.101947
 30
0.0
 11
206.753619
 21
229.561076
 31
0.0
  0
LINE
  8
CAPTIONS
  6
CONTINUOUS
 10
604.004477
 20
384.227121
 30
0.0
 11
587.474861
 21
384.227121
 31
0.0
  0
SOLID
  8
CAPTIONS
  6
CONTINUOUS
 10
576.112159
 20
348.847369
 30
0.0
 11
577.439861
 21
347.839905
 31
0.0
 12
573.753619
 22
344.36053
 32
0.0
 13
573.753619
 23
344.36053
 33
0.0
  0
LINE
  8
CAPTIONS
  6
CONTINUOUS
 10
573.753619
 20
344.36053
 30
0.0
 11
604.004477
 21
384.227121
 31
0.0
  0
LINE
  8
CAPTIONS
  6
CONTINUOUS
 10
505.167005
 20
374.641071
 30
0.0
 11
497.573196
 21
374.641071
 31
0.0
  0
SOLID
  8
CAPTIONS
  6
CONTINUOUS
 10
489.02636
 20
354.748456
 30
0.0
 11
490.354063
 21
353.740992
 31
0.0
 12
486.667821
 22
350.261617
 32
0.0
 13
486.667821
 23
350.261617
 33
0.0
  0
LINE
  8
CAPTIONS
  6
CONTINUOUS
 10
486.667821
 20
350.261617
 30
0.0
 11
505.167005
 21
374.641071
 31
0.0
  0
LINE
  8
CAPTIONS
  6
CONTINUOUS
 10
266.428136
 20
374.634355
 30
0.0
 11
273.338218
 21
374.634355
 31
0.0
  0
LINE
  8
CAPTIONS
  6
CONTINUOUS
 10
285.091731
 20
350.038228
 30
0.0
 11
266.428136
 21
374.634355
 31
0.0
  0
SOLID
  8
CAPTIONS
  6
CONTINUOUS
 10
282.733191
 20
354.525067
 30
0.0
 11
281.405489
 21
353.517604
 31
0.0
 12
285.091731
 22
350.038228
 32
0.0
 13
285.091731
 23
350.038228
 33
0.0
  0
LINE
  8
CAPTIONS
  6
CONTINUOUS
 10
153.345352
 20
386.183783
 30
0.0
 11
160.677247
 21
386.183783
 31
0.0
  0
LINE
  8
CAPTIONS
  6
CONTINUOUS
 10
206.753619
 20
315.798817
 30
0.0
 11
153.345352
 21
386.183783
 31
0.0
  0
SOLID
  8
CAPTIONS
  6
CONTINUOUS
 10
204.39508
 20
320.285656
 30
0.0
 11
203.067377
 21
319.278192
 31
0.0
 12
206.753619
 22
315.798817
 32
0.0
 13
206.753619
 23
315.798817
 33
0.0
  0
TEXT
  8
CAPTIONS
 10
165.372549
 20
384.374162
 30
0.0
 40
4.0
  1
FRONT TUBE CLEARANCE
  7
ROMAND
 72
     4
 11
203.372549
 21
386.374162
 31
0.0
  0
TEXT
  8
CAPTIONS
 10
436.276706
 20
371.803761
 30
0.0
 40
4.0
  1
REAR DOOR SWING
  7
ROMAND
  0
TEXT
  8
CAPTIONS
 10
276.499522
 20
372.560405
 30
0.0
 40
4.0
  1
FRONT DOOR SWING
  7
ROMAND
  0
TEXT
  8
CAPTIONS
 10
508.9361
 20
381.52419
 30
0.0
 40
4.0
  1
REAR TUBE CLEARANCE
  7
ROMAND
  0
LINE
  8
RIGHTSIDE
 10
309.598182
 20
164.829192
 30
0.0
 11
309.598182
 21
124.471253
 31
0.0
  0
LINE
  8
RIGHTSIDE
 10
322.815087
 20
173.804587
 30
0.0
 11
318.420286
 21
173.804587
 31
0.0
  0
ARC
  8
FRONTVIEW
  6
CONTINUOUS
 10
145.564411
 20
146.804587
 30
0.0
 40
27.0
 50
13.32761
 51
62.4751
  0
ARC
  8
FRONTVIEW
  6
DASHED
 10
145.564411
 20
146.804587
 30
0.0
 40
27.0
 50
62.4751
 51
117.524897
  0
ARC
  8
FRONTVIEW
  6
DASHED
 10
145.564411
 20
146.804587
 30
0.0
 40
24.0
 50
58.674401
 51
121.325595
  0
LINE
  8
FRONTVIEW
  6
CENTER
 10
183.454816
 20
146.804587
 30
0.0
 11
114.979153
 21
146.804587
 31
0.0
  0
ARC
  8
FRONTVIEW
  6
CONTINUOUS
 10
145.564411
 20
146.804587
 30
0.0
 40
27.0
 50
117.524897
 51
346.67239
  0
POLYLINE
  8
FRONTVIEW
  6
CONTINUOUS
 66
     1
 10
0.0
 20
0.0
 30
0.0
  0
VERTEX
  8
FRONTVIEW
  6
CONTINUOUS
 10
180.904222
 20
150.153174
 30
0.0
 42
0.037175
  0
VERTEX
  8
FRONTVIEW
  6
CONTINUOUS
 10
181.464565
 20
150.420783
 30
0.0
 42
0.106525
  0
VERTEX
  8
FRONTVIEW
  6
CONTINUOUS
 10
183.41513
 20
152.17383
 30
0.0
 42
0.083997
 70
     2
 50
125.891758
  0
VERTEX
  8
FRONTVIEW
  6
CONTINUOUS
 10
184.627065
 20
154.627188
 30
0.0
 42
0.072936
  0
VERTEX
  8
FRONTVIEW
  6
CONTINUOUS
 10
185.08354
 20
157.73984
 30
0.0
 42
0.001565
  0
VERTEX
  8
FRONTVIEW
  6
CONTINUOUS
 10
185.083328
 20
157.807682
 30
0.0
 42
0.001565
 50
54.108242
  0
VERTEX
  8
FRONTVIEW
  6
CONTINUOUS
 10
185.08354
 20
157.875524
 30
0.0
 42
0.072936
  0
VERTEX
  8
FRONTVIEW
  6
CONTINUOUS
 10
184.627065
 20
160.988175
 30
0.0
 42
0.083997
  0
VERTEX
  8
FRONTVIEW
  6
CONTINUOUS
 10
183.41513
 20
163.441533
 30
0.0
 42
0.106525
 70
     2
 50
125.891758
  0
VERTEX
  8
FRONTVIEW
  6
CONTINUOUS
 10
181.464565
 20
165.19458
 30
0.0
 42
0.009649
 50
125.891758
  0
VERTEX
  8
FRONTVIEW
  6
CONTINUOUS
 10
181.322976
 20
165.272036
 30
0.0
 42
0.130704
  0
SEQEND
  8
FRONTVIEW
  6
CONTINUOUS
  0
LINE
  8
FRONTVIEW
 10
180.904222
 20
131.301405
 30
0.0
 11
180.904222
 21
155.506401
 31
0.0
  0
LINE
  8
FRONTVIEW
 10
126.897749
 20
118.804587
 30
0.0
 11
125.183645
 21
129.095143
 31
0.0
  0
ARC
  8
RIGHTSIDE
  6
CONTINUOUS
 10
352.634534
 20
149.782226
 30
0.0
 40
0.5
 50
270.0
 51
0.098101
  0
ARC
  8
RIGHTSIDE
  6
CONTINUOUS
 10
348.376101
 20
149.782226
 30
0.0
 40
0.5
 50
180.098875
 51
270.0
  0
ARC
  8
RIGHTSIDE
  6
CONTINUOUS
 10
352.634534
 20
170.09818
 30
0.0
 40
0.5
 50
359.901898
 51
90.0
  0
ARC
  8
RIGHTSIDE
  6
CONTINUOUS
 10
348.376101
 20
170.09818
 30
0.0
 40
0.5
 50
90.0
 51
179.901125
  0
ARC
  8
RIGHTSIDE
 10
354.641946
 20
156.124422
 30
0.0
 40
1.0
 50
103.221472
 51
179.869697
  0
LINE
  8
RIGHTSIDE
  6
CONTINUOUS
 10
348.397106
 20
169.426059
 30
0.0
 11
352.631637
 21
169.426059
 31
0.0
  0
LINE
  8
RIGHTSIDE
  6
CONTINUOUS
 10
348.376101
 20
149.282226
 30
0.0
 11
352.634534
 21
149.282226
 31
0.0
  0
LINE
  8
RIGHTSIDE
  6
CONTINUOUS
 10
348.376101
 20
170.59818
 30
0.0
 11
352.634534
 21
170.59818
 31
0.0
  0
ARC
  8
RIGHTSIDE
  6
DASHED
 10
471.749133
 20
148.371555
 30
0.0
 40
33.407293
 50
236.456159
 51
123.543841
  0
POLYLINE
  8
FRONTVIEW
  6
CONTINUOUS
 66
     1
 10
0.0
 20
0.0
 30
0.0
  0
VERTEX
  8
FRONTVIEW
  6
CONTINUOUS
 10
174.564411
 20
153.664661
 30
0.0
 42
0.022463
  0
VERTEX
  8
FRONTVIEW
  6
CONTINUOUS
 10
174.904222
 20
153.011145
 30
0.0
 42
0.046597
 70
     2
 50
305.891758
  0
SEQEND
  8
FRONTVIEW
  6
CONTINUOUS
  0
LINE
  8
RIGHTSIDE
  6
CONTINUOUS
 10
313.918651
 20
106.804587
 30
0.0
 11
291.521861
 21
106.804587
 31
0.0
  0
LINE
  8
RIGHTSIDE
  6
CENTER
 10
471.834762
 20
146.804587
 30
0.0
 11
298.467132
 21
146.804587
 31
0.0
  0
LINE
  8
FRONTVIEW
  6
CONTINUOUS
 10
187.50661
 20
159.945046
 30
0.0
 11
188.958982
 21
159.945046
 31
0.0
  0
LINE
  8
FRONTVIEW
  6
CONTINUOUS
 10
187.50661
 20
160.245046
 30
0.0
 11
188.958982
 21
160.245046
 31
0.0
  0
LINE
  8
FRONTVIEW
  6
CONTINUOUS
 10
189.564411
 20
161.242102
 30
0.0
 11
188.958982
 21
160.850754
 31
0.0
  0
LINE
  8
FRONTVIEW
  6
CONTINUOUS
 10
189.564411
 20
158.880516
 30
0.0
 11
189.564411
 21
161.242102
 31
0.0
  0
LINE
  8
FRONTVIEW
  6
CONTINUOUS
 10
188.958982
 20
159.393318
 30
0.0
 11
189.564411
 21
158.880516
 31
0.0
  0
LINE
  8
FRONTVIEW
  6
CONTINUOUS
 10
188.958982
 20
160.850754
 30
0.0
 11
188.958982
 21
159.393318
 31
0.0
  0
ARC
  8
RIGHTSIDE
  6
CONTINUOUS
 10
350.506171
 20
175.928488
 30
0.0
 40
1.525326
 50
314.37119
 51
225.62881
  0
LINE
  8
FRONTVIEW
  6
CONTINUOUS
 10
188.958982
 20
154.76461
 30
0.0
 11
188.958982
 21
156.222045
 31
0.0
  0
LINE
  8
FRONTVIEW
  6
CONTINUOUS
 10
188.958982
 20
156.222045
 30
0.0
 11
189.564411
 21
156.734847
 31
0.0
  0
LINE
  8
FRONTVIEW
  6
CONTINUOUS
 10
189.564411
 20
156.734847
 30
0.0
 11
189.564411
 21
154.373261
 31
0.0
  0
LINE
  8
FRONTVIEW
  6
CONTINUOUS
 10
189.564411
 20
154.373261
 30
0.0
 11
188.958982
 21
154.76461
 31
0.0
  0
LINE
  8
FRONTVIEW
  6
CONTINUOUS
 10
187.50661
 20
155.370317
 30
0.0
 11
188.958982
 21
155.370317
 31
0.0
  0
LINE
  8
FRONTVIEW
  6
CONTINUOUS
 10
187.50661
 20
155.670317
 30
0.0
 11
188.958982
 21
155.670317
 31
0.0
  0
LINE
  8
FRONTVIEW
  6
CONTINUOUS
 10
184.262283
 20
153.779491
 30
0.0
 11
186.403542
 21
153.779491
 31
0.0
  0
LINE
  8
FRONTVIEW
  6
CONTINUOUS
 10
186.403542
 20
154.45423
 30
0.0
 11
184.527861
 21
154.45423
 31
0.0
  0
LINE
  8
FRONTVIEW
  6
CONTINUOUS
 10
186.403542
 20
161.161133
 30
0.0
 11
184.573132
 21
161.161133
 31
0.0
  0
LINE
  8
FRONTVIEW
  6
CONTINUOUS
 10
184.321284
 20
161.835872
 30
0.0
 11
186.403542
 21
161.835872
 31
0.0
  0
LINE
  8
FRONTVIEW
  6
CONTINUOUS
 10
187.50661
 20
163.563203
 30
0.0
 11
186.403542
 21
163.563203
 31
0.0
  0
LINE
  8
FRONTVIEW
  6
CONTINUOUS
 10
187.50661
 20
152.05216
 30
0.0
 11
187.50661
 21
163.563203
 31
0.0
  0
LINE
  8
FRONTVIEW
  6
CONTINUOUS
 10
186.403542
 20
152.05216
 30
0.0
 11
187.50661
 21
152.05216
 31
0.0
  0
LINE
  8
FRONTVIEW
  6
CONTINUOUS
 10
186.403542
 20
163.563203
 30
0.0
 11
186.403542
 21
152.05216
 31
0.0
  0
LINE
  8
RIGHTSIDE
 10
449.953619
 20
106.804587
 30
0.0
 11
449.953619
 21
118.804587
 31
0.0
  0
LINE
  8
RIGHTSIDE
 10
319.953619
 20
118.804587
 30
0.0
 11
319.953619
 21
106.804587
 31
0.0
  0
LINE
  8
RIGHTSIDE
  6
CONTINUOUS
 10
455.988587
 20
106.804587
 30
0.0
 11
478.385378
 21
106.804587
 31
0.0
  0
ARC
  8
RIGHTSIDE
  6
DASHED
 10
298.158105
 20
148.371555
 30
0.0
 40
33.407293
 50
56.456159
 51
303.543841
  0
ARC
  8
FRONTVIEW
  6
CONTINUOUS
 10
174.091262
 20
166.272036
 30
0.0
 40
1.0
 50
180.0
 51
270.0
  0
ARC
  8
FRONTVIEW
  6
CONTINUOUS
 10
174.091262
 20
168.534663
 30
0.0
 40
1.0
 50
90.0
 51
180.0
  0
ARC
  8
FRONTVIEW
  6
CONTINUOUS
 10
184.564411
 20
166.272036
 30
0.0
 40
1.0
 50
270.0
 51
0.0
  0
ARC
  8
FRONTVIEW
  6
CONTINUOUS
 10
184.564411
 20
168.534663
 30
0.0
 40
1.0
 50
0.0
 51
90.0
  0
POLYLINE
  8
FRONTVIEW
  6
CONTINUOUS
 66
     1
 10
0.0
 20
0.0
 30
0.0
  0
VERTEX
  8
FRONTVIEW
  6
CONTINUOUS
 10
177.451487
 20
165.272036
 30
0.0
 42
0.009649
  0
VERTEX
  8
FRONTVIEW
  6
CONTINUOUS
 10
177.309898
 20
165.19458
 30
0.0
 42
0.106525
  0
VERTEX
  8
FRONTVIEW
  6
CONTINUOUS
 10
175.359333
 20
163.441533
 30
0.0
 42
0.083997
 70
     2
 50
234.108242
  0
VERTEX
  8
FRONTVIEW
  6
CONTINUOUS
 10
174.147398
 20
160.988175
 30
0.0
 42
0.072936
 50
234.108242
  0
VERTEX
  8
FRONTVIEW
  6
CONTINUOUS
 10
173.690922
 20
157.875524
 30
0.0
 42
0.072936
  0
SEQEND
  8
FRONTVIEW
  6
CONTINUOUS
  0
LINE
  8
FRONTVIEW
 10
180.165544
 20
169.534663
 30
0.0
 11
180.165544
 21
174.828046
 31
0.0
  0
LINE
  8
FRONTVIEW
 10
178.444705
 20
169.534663
 30
0.0
 11
178.444705
 21
174.828046
 31
0.0
  0
LINE
  8
FRONTVIEW
  6
CONTINUOUS
 10
184.564411
 20
165.272036
 30
0.0
 11
174.091262
 21
165.272036
 31
0.0
  0
LINE
  8
FRONTVIEW
  6
CONTINUOUS
 10
184.564411
 20
169.534663
 30
0.0
 11
174.091262
 21
169.534663
 31
0.0
  0
LINE
  8
FRONTVIEW
  6
CENTER
 10
173.091262
 20
166.272036
 30
0.0
 11
173.091262
 21
168.534663
 31
0.0
  0
LINE
  8
FRONTVIEW
  6
CENTER
 10
185.564411
 20
166.272036
 30
0.0
 11
185.564411
 21
168.534663
 31
0.0
  0
POLYLINE
  8
FRONTVIEW
  6
CONTINUOUS
 66
     1
 10
0.0
 20
0.0
 30
0.0
  0
VERTEX
  8
FRONTVIEW
  6
CONTINUOUS
 10
173.690922
 20
157.875524
 30
0.0
 42
0.072936
  0
VERTEX
  8
FRONTVIEW
  6
CONTINUOUS
 10
174.147398
 20
154.762872
 30
0.0
 42
0.018973
  0
VERTEX
  8
FRONTVIEW
  6
CONTINUOUS
 10
174.348535
 20
154.174057
 30
0.0
 42
0.046597
 70
     2
 50
305.891758
  0
SEQEND
  8
FRONTVIEW
  6
CONTINUOUS
  0
LINE
  8
RIGHTSIDE
 10
309.253619
 20
164.829192
 30
0.0
 11
309.253619
 21
159.451357
 31
0.0
  0
ARC
  8
RIGHTSIDE
  6
CONTINUOUS
 10
304.706825
 20
165.829192
 30
0.0
 40
1.0
 50
180.0
 51
270.0
  0
ARC
  8
RIGHTSIDE
  6
CONTINUOUS
 10
304.706825
 20
170.186091
 30
0.0
 40
1.0
 50
62.633071
 51
180.0
  0
ARC
  8
RIGHTSIDE
  6
CONTINUOUS
 10
316.471877
 20
164.659292
 30
0.0
 40
0.5
 50
0.0
 51
62.633071
  0
LINE
  8
RIGHTSIDE
  6
CONTINUOUS
 10
316.70172
 20
165.103333
 30
0.0
 11
305.166512
 21
171.074172
 31
0.0
  0
ARC
  8
RIGHTSIDE
  6
CONTINUOUS
 10
311.646142
 20
164.329192
 30
0.0
 40
0.5
 50
0.0
 51
90.0
  0
LINE
  8
RIGHTSIDE
  6
CONTINUOUS
 10
316.971877
 20
163.889071
 30
0.0
 11
316.971877
 21
164.659292
 31
0.0
  0
LINE
  8
RIGHTSIDE
  6
CONTINUOUS
 10
312.146142
 20
163.889071
 30
0.0
 11
316.971877
 21
163.889071
 31
0.0
  0
LINE
  8
RIGHTSIDE
  6
CONTINUOUS
 10
312.146142
 20
164.329192
 30
0.0
 11
312.146142
 21
163.889071
 31
0.0
  0
LINE
  8
RIGHTSIDE
  6
CONTINUOUS
 10
304.706825
 20
164.829192
 30
0.0
 11
311.646142
 21
164.829192
 31
0.0
  0
LINE
  8
RIGHTSIDE
  6
CONTINUOUS
 10
303.706825
 20
170.186091
 30
0.0
 11
303.706825
 21
165.829192
 31
0.0
  0
LINE
  8
RIGHTSIDE
  6
CONTINUOUS
 10
309.380782
 20
149.09528
 30
0.0
 11
309.598182
 21
149.09528
 31
0.0
  0
ARC
  8
RIGHTSIDE
  6
CONTINUOUS
 10
309.380782
 20
149.59528
 30
0.0
 40
0.5
 50
180.0
 51
270.0
  0
LINE
  8
RIGHTSIDE
 10
309.253619
 20
179.429587
 30
0.0
 11
309.253619
 21
168.958609
 31
0.0
  0
ARC
  8
RIGHTSIDE
  6
CONTINUOUS
 10
309.380782
 20
158.389368
 30
0.0
 40
0.5
 50
90.0
 51
180.0
  0
LINE
  8
RIGHTSIDE
 10
308.880782
 20
158.389368
 30
0.0
 11
308.880782
 21
149.59528
 31
0.0
  0
LINE
  8
RIGHTSIDE
  6
CONTINUOUS
 10
309.380782
 20
158.889368
 30
0.0
 11
309.598182
 21
158.889368
 31
0.0
  0
LINE
  8
RIGHTSIDE
 10
302.715145
 20
150.256303
 30
0.0
 11
308.880782
 21
150.256303
 31
0.0
  0
ARC
  8
FRONTVIEW
  6
CONTINUOUS
 10
145.564411
 20
146.804587
 30
0.0
 40
24.0
 50
121.325595
 51
58.674401
  0
LINE
  8
FRONTVIEW
  6
CENTER
 10
145.564411
 20
116.902501
 30
0.0
 11
145.564411
 21
186.906508
 31
0.0
  0
LINE
  8
RIGHTSIDE
 10
349.439505
 20
173.804587
 30
0.0
 11
333.545244
 21
173.804587
 31
0.0
  0
LINE
  8
RIGHTSIDE
 10
452.552791
 20
154.174057
 30
0.0
 11
452.552791
 21
139.435116
 31
0.0
  0
LINE
  8
RIGHTSIDE
 10
452.552791
 20
154.174057
 30
0.0
 11
447.228858
 21
154.174057
 31
0.0
  0
LINE
  8
RIGHTSIDE
 10
452.552791
 20
139.435116
 30
0.0
 11
447.228858
 21
139.435116
 31
0.0
  0
LINE
  8
RIGHTSIDE
 10
448.954448
 20
154.174057
 30
0.0
 11
448.954448
 21
139.435116
 31
0.0
  0
LINE
  8
RIGHTSIDE
 10
448.954448
 20
152.987022
 30
0.0
 11
447.228858
 21
152.987022
 31
0.0
  0
LINE
  8
RIGHTSIDE
 10
448.954448
 20
140.580583
 30
0.0
 11
447.228858
 21
140.580583
 31
0.0
  0
LINE
  8
RIGHTSIDE
 10
447.228858
 20
139.435116
 30
0.0
 11
447.228858
 21
140.580583
 31
0.0
  0
LINE
  8
RIGHTSIDE
 10
447.228858
 20
152.987022
 30
0.0
 11
447.228858
 21
154.174057
 31
0.0
  0
LINE
  8
RIGHTSIDE
 10
333.245445
 20
131.303278
 30
0.0
 11
333.245445
 21
118.804587
 31
0.0
  0
LINE
  8
RIGHTSIDE
 10
437.261793
 20
131.454948
 30
0.0
 11
437.261793
 21
118.804587
 31
0.0
  0
LINE
  8
RIGHTSIDE
 10
441.261792
 20
131.454948
 30
0.0
 11
437.261793
 21
131.454948
 31
0.0
  0
LINE
  8
RIGHTSIDE
 10
441.261792
 20
131.454948
 30
0.0
 11
441.261792
 21
118.804587
 31
0.0
  0
LINE
  8
RIGHTSIDE
 10
323.278381
 20
152.987022
 30
0.0
 11
323.278381
 21
154.174057
 31
0.0
  0
LINE
  8
RIGHTSIDE
 10
323.278381
 20
139.435116
 30
0.0
 11
323.278381
 21
140.580583
 31
0.0
  0
LINE
  8
FRONTVIEW
 10
174.904222
 20
131.301405
 30
0.0
 11
180.904222
 21
131.301405
 31
0.0
  0
LINE
  8
FRONTVIEW
 10
168.743319
 20
140.580583
 30
0.0
 11
172.996137
 21
140.580583
 31
0.0
  0
LINE
  8
FRONTVIEW
 10
172.996137
 20
139.435116
 30
0.0
 11
174.564411
 21
139.435116
 31
0.0
  0
LINE
  8
RIGHTSIDE
 10
323.643825
 20
140.580583
 30
0.0
 11
323.643825
 21
138.580583
 31
0.0
  0
LINE
  8
RIGHTSIDE
 10
321.552791
 20
140.580583
 30
0.0
 11
323.278381
 21
140.580583
 31
0.0
  0
LINE
  8
RIGHTSIDE
 10
321.552791
 20
152.987022
 30
0.0
 11
323.278381
 21
152.987022
 31
0.0
  0
LINE
  8
RIGHTSIDE
 10
321.552791
 20
154.174057
 30
0.0
 11
321.552791
 21
139.435116
 31
0.0
  0
LINE
  8
RIGHTSIDE
 10
323.643825
 20
155.506401
 30
0.0
 11
323.643825
 21
153.506402
 31
0.0
  0
ARC
  8
RIGHTSIDE
  6
CONTINUOUS
 10
308.986985
 20
130.682292
 30
0.0
 40
1.0
 50
180.0
 51
270.0
  0
ARC
  8
RIGHTSIDE
  6
CONTINUOUS
 10
308.986985
 20
143.655961
 30
0.0
 40
1.0
 50
90.0
 51
180.0
  0
LINE
  8
RIGHTSIDE
 10
307.986985
 20
143.655961
 30
0.0
 11
307.986985
 21
130.682292
 31
0.0
  0
LINE
  8
RIGHTSIDE
  6
CONTINUOUS
 10
308.986985
 20
129.682292
 30
0.0
 11
309.598182
 21
129.682292
 31
0.0
  0
LINE
  8
RIGHTSIDE
  6
CONTINUOUS
 10
308.986985
 20
144.655961
 30
0.0
 11
309.598182
 21
144.655961
 31
0.0
  0
LINE
  8
RIGHTSIDE
 10
466.073736
 20
136.058548
 30
0.0
 11
468.10072
 21
136.058548
 31
0.0
  0
LINE
  8
RIGHTSIDE
 10
466.073736
 20
139.542424
 30
0.0
 11
468.10072
 21
139.542424
 31
0.0
  0
LINE
  8
RIGHTSIDE
 10
468.10072
 20
141.251859
 30
0.0
 11
468.10072
 21
134.349113
 31
0.0
  0
LINE
  8
RIGHTSIDE
 10
469.274545
 20
141.251859
 30
0.0
 11
469.274545
 21
134.349113
 31
0.0
  0
LINE
  8
RIGHTSIDE
 10
468.10072
 20
134.349113
 30
0.0
 11
469.274545
 21
134.349113
 31
0.0
  0
LINE
  8
RIGHTSIDE
 10
468.10072
 20
141.251859
 30
0.0
 11
469.274545
 21
141.251859
 31
0.0
  0
LINE
  8
FRONTVIEW
  6
DASHED
 10
152.034323
 20
176.13792
 30
0.0
 11
139.094499
 21
176.13792
 31
0.0
  0
CIRCLE
  8
FRONTVIEW
  6
CONTINUOUS
 10
145.560126
 20
153.969128
 30
0.0
 40
3.733332
  0
LINE
  8
RIGHTSIDE
  6
CONTINUOUS
 10
349.439505
 20
149.283971
 30
0.0
 11
349.439505
 21
142.624194
 31
0.0
  0
LINE
  8
RIGHTSIDE
  6
CONTINUOUS
 10
351.572838
 20
149.282226
 30
0.0
 11
351.572838
 21
142.624194
 31
0.0
  0
ARC
  8
RIGHTSIDE
  6
CONTINUOUS
 10
350.506171
 20
175.928488
 30
0.0
 40
1.066706
 50
359.509422
 51
180.490578
  0
LINE
  8
RIGHTSIDE
  6
CONTINUOUS
 10
359.62678
 20
166.965891
 30
0.0
 11
359.62678
 21
166.465892
 31
0.0
  0
LINE
  8
RIGHTSIDE
  6
CONTINUOUS
 10
362.251528
 20
167.425645
 30
0.0
 11
362.251528
 21
166.965891
 31
0.0
  0
LINE
  8
RIGHTSIDE
  6
CONTINUOUS
 10
369.404177
 20
167.425645
 30
0.0
 11
369.404177
 21
166.465892
 31
0.0
  0
LINE
  8
RIGHTSIDE
  6
CONTINUOUS
 10
359.62678
 20
166.465892
 30
0.0
 11
369.404177
 21
166.465892
 31
0.0
  0
LINE
  8
RIGHTSIDE
  6
CONTINUOUS
 10
369.404177
 20
167.425645
 30
0.0
 11
362.251528
 21
167.425645
 31
0.0
  0
LINE
  8
RIGHTSIDE
  6
CONTINUOUS
 10
359.62678
 20
166.965891
 30
0.0
 11
369.402899
 21
166.965891
 31
0.0
  0
ARC
  8
RIGHTSIDE
 10
362.097435
 20
166.470381
 30
0.0
 40
2.433514
 50
269.840645
 51
310.249008
  0
ARC
  8
RIGHTSIDE
  6
CONTINUOUS
 10
350.506171
 20
142.633327
 30
0.0
 40
2.026873
 50
121.753237
 51
58.246763
  0
ARC
  8
RIGHTSIDE
  6
CONTINUOUS
 10
350.506171
 20
142.633327
 30
0.0
 40
1.066706
 50
179.509422
 51
0.490578
  0
LINE
  8
RIGHTSIDE
  6
CONTINUOUS
 10
351.572838
 20
175.919355
 30
0.0
 11
351.572838
 21
170.59818
 31
0.0
  0
LINE
  8
RIGHTSIDE
  6
CONTINUOUS
 10
349.439505
 20
175.919355
 30
0.0
 11
349.439505
 21
170.59818
 31
0.0
  0
LINE
  8
RIGHTSIDE
 10
347.394328
 20
168.428845
 30
0.0
 11
347.349891
 21
151.451563
 31
0.0
  0
LINE
  8
RIGHTSIDE
 10
354.665413
 20
164.039341
 30
0.0
 11
362.090667
 21
164.036876
 31
0.0
  0
LINE
  8
RIGHTSIDE
 10
348.347106
 20
150.448786
 30
0.0
 11
352.628519
 21
150.445632
 31
0.0
  0
ARC
  8
RIGHTSIDE
 10
363.938906
 20
166.285482
 30
0.0
 40
4.425234
 50
292.72343
 51
2.168935
  0
ARC
  8
RIGHTSIDE
 10
362.097435
 20
166.470381
 30
0.0
 40
2.433514
 50
321.783307
 51
359.840645
  0
LINE
  8
RIGHTSIDE
 10
363.408671
 20
165.049417
 30
0.0
 11
365.601828
 21
161.383574
 31
0.0
  0
LINE
  8
RIGHTSIDE
 10
363.73037
 20
165.435004
 30
0.0
 11
365.880646
 21
161.812283
 31
0.0
  0
ARC
  8
RIGHTSIDE
 10
363.65647
 20
162.95379
 30
0.0
 40
2.499999
 50
321.090906
 51
332.831874
  0
ARC
  8
RIGHTSIDE
 10
362.097435
 20
166.470381
 30
0.0
 40
1.933515
 50
312.70015
 51
327.622896
  0
ARC
  8
RIGHTSIDE
 10
348.394325
 20
168.426063
 30
0.0
 40
1.0
 50
89.840645
 51
179.840645
  0
ARC
  8
RIGHTSIDE
 10
348.349887
 20
151.448782
 30
0.0
 40
1.0
 50
179.840645
 51
269.840645
  0
ARC
  8
RIGHTSIDE
 10
352.6313
 20
151.445628
 30
0.0
 40
1.0
 50
269.840645
 51
359.840645
  0
LINE
  8
RIGHTSIDE
 10
353.631296
 20
151.442847
 30
0.0
 11
353.641948
 21
156.126696
 31
0.0
  0
ARC
  8
RIGHTSIDE
 10
352.625598
 20
168.376076
 30
0.0
 40
1.05
 50
359.840645
 51
89.670485
  0
ARC
  8
RIGHTSIDE
 10
347.289916
 20
187.417208
 30
0.0
 40
31.144841
 50
283.221472
 51
305.215451
  0
LINE
  8
RIGHTSIDE
 10
353.134533
 20
170.097324
 30
0.0
 11
353.133154
 21
169.292225
 31
0.0
  0
LINE
  8
RIGHTSIDE
 10
347.876101
 20
170.099043
 30
0.0
 11
347.874689
 21
169.28045
 31
0.0
  0
LINE
  8
RIGHTSIDE
 10
353.666338
 20
165.042122
 30
0.0
 11
353.675594
 21
168.370128
 31
0.0
  0
ARC
  8
RIGHTSIDE
 10
354.666334
 20
165.039341
 30
0.0
 40
1.0
 50
179.840645
 51
269.947215
  0
LINE
  8
RIGHTSIDE
 10
347.876101
 20
149.781364
 30
0.0
 11
347.874742
 21
150.568874
 31
0.0
  0
LINE
  8
RIGHTSIDE
 10
353.134533
 20
149.783083
 30
0.0
 11
353.133167
 21
150.580683
 31
0.0
  0
ARC
  8
RIGHTSIDE
  6
CONTINUOUS
 10
328.148419
 20
185.107931
 30
0.0
 40
12.498401
 50
244.740345
 51
295.259655
  0
LINE
  8
RIGHTSIDE
 10
322.815087
 20
173.804587
 30
0.0
 11
322.815087
 21
176.13792
 31
0.0
  0
LINE
  8
RIGHTSIDE
 10
317.954448
 20
139.435116
 30
0.0
 11
323.278381
 21
139.435116
 31
0.0
  0
LINE
  8
RIGHTSIDE
 10
323.643825
 20
155.506401
 30
0.0
 11
339.681706
 21
155.506401
 31
0.0
  0
LINE
  8
RIGHTSIDE
 10
323.643825
 20
131.303278
 30
0.0
 11
339.681706
 21
131.303278
 31
0.0
  0
LINE
  8
FRONTVIEW
 10
181.589161
 20
177.41979
 30
0.0
 11
177.066513
 21
177.41979
 31
0.0
  0
LINE
  8
FRONTVIEW
 10
181.589161
 20
175.823154
 30
0.0
 11
181.589161
 21
177.41979
 31
0.0
  0
LINE
  8
FRONTVIEW
 10
181.009792
 20
175.823154
 30
0.0
 11
181.589161
 21
175.823154
 31
0.0
  0
ARC
  8
FRONTVIEW
 10
181.009792
 20
175.156488
 30
0.0
 40
0.666667
 50
90.0
 51
180.0
  0
LINE
  8
FRONTVIEW
 10
174.904222
 20
131.301405
 30
0.0
 11
174.904222
 21
155.506401
 31
0.0
  0
LINE
  8
FRONTVIEW
 10
172.996137
 20
139.435116
 30
0.0
 11
172.996137
 21
154.174057
 31
0.0
  0
LINE
  8
FRONTVIEW
 10
174.564411
 20
139.435116
 30
0.0
 11
174.564411
 21
147.835791
 31
0.0
  0
LINE
  8
FRONTVIEW
 10
172.996137
 20
154.174057
 30
0.0
 11
174.564411
 21
154.174057
 31
0.0
  0
LINE
  8
FRONTVIEW
 10
174.564411
 20
154.174057
 30
0.0
 11
174.564411
 21
147.835791
 31
0.0
  0
LINE
  8
FRONTVIEW
 10
168.743319
 20
153.028591
 30
0.0
 11
172.996137
 21
153.028591
 31
0.0
  0
LINE
  8
RIGHTSIDE
 10
319.953619
 20
106.804587
 30
0.0
 11
449.953619
 21
106.804587
 31
0.0
  0
ARC
  8
FRONTVIEW
 10
177.645882
 20
175.156488
 30
0.0
 40
0.666667
 50
0.0
 51
90.0
  0
LINE
  8
FRONTVIEW
 10
180.343125
 20
174.828046
 30
0.0
 11
180.343125
 21
175.156488
 31
0.0
  0
LINE
  8
FRONTVIEW
 10
178.312548
 20
174.828046
 30
0.0
 11
180.343125
 21
174.828046
 31
0.0
  0
LINE
  8
FRONTVIEW
 10
178.312548
 20
175.156488
 30
0.0
 11
178.312548
 21
174.828046
 31
0.0
  0
LINE
  8
FRONTVIEW
 10
177.645882
 20
175.823154
 30
0.0
 11
177.066513
 21
175.823154
 31
0.0
  0
LINE
  8
FRONTVIEW
 10
177.066513
 20
175.823154
 30
0.0
 11
177.066513
 21
177.41979
 31
0.0
  0
LINE
  8
FRONTVIEW
  6
DASHED
 10
139.094499
 20
176.804587
 30
0.0
 11
139.094499
 21
176.13792
 31
0.0
  0
LINE
  8
FRONTVIEW
  6
DASHED
 10
152.034323
 20
176.804587
 30
0.0
 11
139.094499
 21
176.804587
 31
0.0
  0
LINE
  8
FRONTVIEW
  6
DASHED
 10
141.801888
 20
176.13792
 30
0.0
 11
141.801888
 21
173.541142
 31
0.0
  0
LINE
  8
FRONTVIEW
  6
DASHED
 10
152.034323
 20
176.804587
 30
0.0
 11
152.034323
 21
176.13792
 31
0.0
  0
LINE
  8
FRONTVIEW
  6
DASHED
 10
149.326934
 20
176.13792
 30
0.0
 11
149.326934
 21
173.541142
 31
0.0
  0
LINE
  8
FRONTVIEW
 10
158.042031
 20
179.404587
 30
0.0
 11
158.042031
 21
159.451357
 31
0.0
  0
LINE
  8
FRONTVIEW
 10
133.086793
 20
179.404587
 30
0.0
 11
133.086793
 21
159.451357
 31
0.0
  0
CIRCLE
  8
FRONTVIEW
 10
145.564411
 20
137.169127
 30
0.0
 40
7.486834
  0
LINE
  8
FRONTVIEW
 10
133.086793
 20
179.404587
 30
0.0
 11
158.042031
 21
179.404587
 31
0.0
  0
LINE
  8
RIGHTSIDE
 10
441.261792
 20
119.810481
 30
0.0
 11
452.086952
 21
119.810481
 31
0.0
  0
LINE
  8
RIGHTSIDE
 10
333.245445
 20
119.810481
 30
0.0
 11
437.261793
 21
119.810481
 31
0.0
  0
LINE
  8
RIGHTSIDE
 10
329.245446
 20
131.303278
 30
0.0
 11
329.245446
 21
118.804587
 31
0.0
  0
ARC
  8
RIGHTSIDE
 10
302.720285
 20
156.395022
 30
0.0
 40
1.333333
 50
90.0
 51
180.0
  0
ARC
  8
RIGHTSIDE
 10
302.720285
 20
151.589626
 30
0.0
 40
1.333333
 50
180.0
 51
269.779122
  0
ARC
  8
RIGHTSIDE
 10
312.264848
 20
124.471253
 30
0.0
 40
2.666666
 50
180.0
 51
270.0
  0
ARC
  8
RIGHTSIDE
 10
312.264848
 20
169.137921
 30
0.0
 40
2.666666
 50
90.0
 51
180.0
  0
ARC
  8
RIGHTSIDE
 10
463.40788
 20
124.471253
 30
0.0
 40
2.666666
 50
270.0
 51
0.0
  0
ARC
  8
RIGHTSIDE
 10
463.40788
 20
169.137921
 30
0.0
 40
2.666666
 50
0.0
 51
90.0
  0
TEXT
  8
RIGHTSIDE
 10
337.57624
 20
94.637196
 30
0.0
 40
5.0
  1
RIGHT SIDE
  7
ROMANS
 72
     4
 11
358.885763
 21
97.137196
 31
0.0
  0
TEXT
  8
FRONTVIEW
 10
124.835811
 20
94.846859
 30
0.0
 40
5.0
  1
FRONT VIEW
  7
ROMANS
 72
     4
 11
147.573906
 21
97.346859
 31
0.0
  0
LINE
  8
FRONTVIEW
 10
164.231073
 20
118.804587
 30
0.0
 11
164.231073
 21
106.804587
 31
0.0
  0
LINE
  8
FRONTVIEW
 10
158.042031
 20
176.115831
 30
0.0
 11
177.066513
 21
176.115831
 31
0.0
  0
LINE
  8
FRONTVIEW
 10
158.042031
 20
177.104631
 30
0.0
 11
177.066513
 21
177.104631
 31
0.0
  0
LINE
  8
FRONTVIEW
 10
133.086793
 20
159.451357
 30
0.0
 11
158.042031
 21
159.451357
 31
0.0
  0
LINE
  8
FRONTVIEW
 10
126.897749
 20
106.804587
 30
0.0
 11
126.897749
 21
118.804587
 31
0.0
  0
LINE
  8
FRONTVIEW
 10
174.904222
 20
155.506401
 30
0.0
 11
180.904222
 21
155.506401
 31
0.0
  0
LINE
  8
FRONTVIEW
 10
160.231074
 20
118.804587
 30
0.0
 11
158.819012
 21
123.281926
 31
0.0
  0
LINE
  8
FRONTVIEW
 10
130.897748
 20
118.804587
 30
0.0
 11
132.309811
 21
123.281926
 31
0.0
  0
LINE
  8
FRONTVIEW
 10
164.231073
 20
118.804587
 30
0.0
 11
165.945177
 21
129.095143
 31
0.0
  0
LINE
  8
FRONTVIEW
 10
126.897749
 20
118.804587
 30
0.0
 11
130.897748
 21
118.804587
 31
0.0
  0
LINE
  8
FRONTVIEW
 10
160.231074
 20
118.804587
 30
0.0
 11
164.231073
 21
118.804587
 31
0.0
  0
LINE
  8
FRONTVIEW
 10
160.231074
 20
106.804587
 30
0.0
 11
164.231073
 21
106.804587
 31
0.0
  0
LINE
  8
FRONTVIEW
 10
126.897749
 20
106.804587
 30
0.0
 11
130.897748
 21
106.804587
 31
0.0
  0
LINE
  8
FRONTVIEW
 10
160.231074
 20
106.804587
 30
0.0
 11
160.231074
 21
118.804587
 31
0.0
  0
LINE
  8
FRONTVIEW
 10
130.897748
 20
106.804587
 30
0.0
 11
130.897748
 21
118.804587
 31
0.0
  0
LINE
  8
RIGHTSIDE
  6
DASHED
 10
472.932754
 20
120.804593
 30
0.0
 11
573.753619
 21
120.804593
 31
0.0
  0
LINE
  8
RIGHTSIDE
 10
312.264848
 20
121.804587
 30
0.0
 11
318.420286
 21
121.804587
 31
0.0
  0
LINE
  8
RIGHTSIDE
 10
452.086952
 20
139.435116
 30
0.0
 11
452.086952
 21
119.810481
 31
0.0
  0
LINE
  8
RIGHTSIDE
 10
450.753619
 20
139.435116
 30
0.0
 11
450.753619
 21
119.810481
 31
0.0
  0
LINE
  8
RIGHTSIDE
 10
449.420286
 20
139.435116
 30
0.0
 11
449.420286
 21
119.810481
 31
0.0
  0
LINE
  8
RIGHTSIDE
  6
DASHED
 10
573.753619
 20
170.804581
 30
0.0
 11
573.753619
 21
120.804593
 31
0.0
  0
LINE
  8
RIGHTSIDE
  6
DASHED
 10
298.804075
 20
122.804587
 30
0.0
 11
206.753619
 21
122.804587
 31
0.0
  0
LINE
  8
RIGHTSIDE
 10
318.420286
 20
119.810481
 30
0.0
 11
329.245446
 21
119.810481
 31
0.0
  0
LINE
  8
RIGHTSIDE
 10
321.086952
 20
154.174057
 30
0.0
 11
321.086952
 21
173.804587
 31
0.0
  0
LINE
  8
RIGHTSIDE
 10
319.753619
 20
139.435116
 30
0.0
 11
319.753619
 21
119.810481
 31
0.0
  0
LINE
  8
RIGHTSIDE
 10
318.420286
 20
139.435116
 30
0.0
 11
318.420286
 21
119.810481
 31
0.0
  0
LINE
  8
RIGHTSIDE
 10
317.954448
 20
154.174057
 30
0.0
 11
323.278381
 21
154.174057
 31
0.0
  0
LINE
  8
RIGHTSIDE
 10
317.954448
 20
154.174057
 30
0.0
 11
317.954448
 21
139.435116
 31
0.0
  0
LINE
  8
RIGHTSIDE
  6
DASHED
 10
472.932754
 20
170.804581
 30
0.0
 11
573.753619
 21
170.804581
 31
0.0
  0
LINE
  8
RIGHTSIDE
 10
466.074546
 20
124.471253
 30
0.0
 11
466.074546
 21
169.137921
 31
0.0
  0
LINE
  8
RIGHTSIDE
 10
452.086952
 20
171.804587
 30
0.0
 11
463.40788
 21
171.804587
 31
0.0
  0
LINE
  8
RIGHTSIDE
 10
301.386952
 20
156.395022
 30
0.0
 11
301.386952
 21
151.589626
 31
0.0
  0
LINE
  8
RIGHTSIDE
 10
302.720285
 20
157.728355
 30
0.0
 11
308.880782
 21
157.728355
 31
0.0
  0
LINE
  8
RIGHTSIDE
 10
301.253619
 20
179.429587
 30
0.0
 11
301.253619
 21
159.451357
 31
0.0
  0
LINE
  8
RIGHTSIDE
 10
301.253619
 20
159.451357
 30
0.0
 11
309.253619
 21
159.451357
 31
0.0
  0
LINE
  8
RIGHTSIDE
  6
DASHED
 10
298.804075
 20
170.804587
 30
0.0
 11
206.753619
 21
170.804587
 31
0.0
  0
LINE
  8
RIGHTSIDE
 10
320.148421
 20
176.13792
 30
0.0
 11
320.148421
 21
176.804587
 31
0.0
  0
LINE
  8
RIGHTSIDE
 10
336.21191
 20
176.13792
 30
0.0
 11
336.21191
 21
176.804587
 31
0.0
  0
LINE
  8
RIGHTSIDE
 10
336.21191
 20
176.804587
 30
0.0
 11
320.148421
 21
176.804587
 31
0.0
  0
LINE
  8
RIGHTSIDE
 10
309.253619
 20
179.429587
 30
0.0
 11
301.253619
 21
179.429587
 31
0.0
  0
LINE
  8
RIGHTSIDE
 10
336.21191
 20
176.13792
 30
0.0
 11
320.148421
 21
176.13792
 31
0.0
  0
LINE
  8
RIGHTSIDE
 10
333.545244
 20
173.804587
 30
0.0
 11
333.545244
 21
176.13792
 31
0.0
  0
LINE
  8
RIGHTSIDE
 10
339.681706
 20
131.303278
 30
0.0
 11
339.681706
 21
155.506401
 31
0.0
  0
LINE
  8
RIGHTSIDE
 10
323.643825
 20
131.303278
 30
0.0
 11
323.643825
 21
155.506401
 31
0.0
  0
LINE
  8
RIGHTSIDE
 10
449.953619
 20
118.804587
 30
0.0
 11
319.953619
 21
118.804587
 31
0.0
  0
LINE
  8
RIGHTSIDE
 10
450.753619
 20
173.804587
 30
0.0
 11
450.753619
 21
154.174057
 31
0.0
  0
LINE
  8
RIGHTSIDE
 10
452.086952
 20
173.804587
 30
0.0
 11
452.086952
 21
154.174057
 31
0.0
  0
LINE
  8
RIGHTSIDE
 10
318.420286
 20
173.804587
 30
0.0
 11
318.420286
 21
154.174057
 31
0.0
  0
LINE
  8
RIGHTSIDE
 10
309.598182
 20
169.137921
 30
0.0
 11
309.598182
 21
168.780257
 31
0.0
  0
LINE
  8
RIGHTSIDE
 10
318.420286
 20
171.804587
 30
0.0
 11
312.264848
 21
171.804587
 31
0.0
  0
LINE
  8
RIGHTSIDE
 10
319.753619
 20
173.804587
 30
0.0
 11
319.753619
 21
154.174057
 31
0.0
  0
LINE
  8
RIGHTSIDE
 10
321.086952
 20
119.810481
 30
0.0
 11
321.086952
 21
139.435116
 31
0.0
  0
LINE
  8
RIGHTSIDE
 10
319.753619
 20
122.804776
 30
0.0
 11
319.753619
 21
123.471442
 31
0.0
  0
LINE
  8
RIGHTSIDE
 10
452.086952
 20
173.804587
 30
0.0
 11
351.572838
 21
173.804587
 31
0.0
  0
LINE
  8
RIGHTSIDE
 10
452.086952
 20
121.804587
 30
0.0
 11
463.40788
 21
121.804587
 31
0.0
  0
LINE
  8
RIGHTSIDE
 10
449.420286
 20
173.804587
 30
0.0
 11
449.420286
 21
154.174057
 31
0.0
  0
LINE
  8
PLANVIEW
  6
DASHED
 10
206.753619
 20
357.727489
 30
0.0
 11
206.753619
 21
309.727501
 31
0.0
  0
LINE
  8
RIGHTSIDE
  6
DASHED
 10
206.753619
 20
170.804587
 30
0.0
 11
206.753619
 21
122.804587
 31
0.0
  0
POLYLINE
  8
FRONTVIEW
  6
CONTINUOUS
 66
     1
 10
0.0
 20
0.0
 30
0.0
 70
     1
 40
0.066523
 41
0.066523
  0
VERTEX
  8
FRONTVIEW
  6
CONTINUOUS
 10
155.151022
 20
161.070834
 30
0.0
  0
VERTEX
  8
FRONTVIEW
  6
CONTINUOUS
 10
155.151022
 20
163.513013
 30
0.0
 42
0.414214
  0
VERTEX
  8
FRONTVIEW
  6
CONTINUOUS
 10
154.485796
 20
164.178238
 30
0.0
  0
VERTEX
  8
FRONTVIEW
  6
CONTINUOUS
 10
136.643026
 20
164.178238
 30
0.0
 42
0.414214
  0
VERTEX
  8
FRONTVIEW
  6
CONTINUOUS
 10
135.9778
 20
163.513013
 30
0.0
  0
VERTEX
  8
FRONTVIEW
  6
CONTINUOUS
 10
135.9778
 20
161.070834
 30
0.0
 42
0.414214
  0
VERTEX
  8
FRONTVIEW
  6
CONTINUOUS
 10
136.643026
 20
160.405608
 30
0.0
  0
VERTEX
  8
FRONTVIEW
  6
CONTINUOUS
 10
154.485796
 20
160.405608
 30
0.0
 42
0.414214
  0
SEQEND
  8
FRONTVIEW
  6
CONTINUOUS
  0
ARC
  8
FRONTVIEW
 10
145.452558
 20
161.429564
 30
0.0
 40
1.742555
 50
73.493764
 51
74.4082
  0
ARC
  8
FRONTVIEW
 10
145.576023
 20
161.84622
 30
0.0
 40
1.307991
 50
54.419527
 51
73.493591
  0
ARC
  8
FRONTVIEW
 10
145.764821
 20
162.11012
 30
0.0
 40
0.98351
 50
30.070114
 51
54.419544
  0
ARC
  8
FRONTVIEW
 10
146.053424
 20
162.277216
 30
0.0
 40
0.650024
 50
359.999979
 51
30.070151
  0
ARC
  8
FRONTVIEW
 10
146.186897
 20
162.232879
 30
0.0
 40
0.51845
 50
329.929866
 51
4.905749
  0
ARC
  8
FRONTVIEW
 10
145.724589
 20
162.500547
 30
0.0
 40
1.052655
 50
305.580464
 51
329.929893
  0
ARC
  8
FRONTVIEW
 10
145.576023
 20
162.708211
 30
0.0
 40
1.307991
 50
286.506409
 51
305.580473
  0
ARC
  8
FRONTVIEW
 10
145.45256
 20
163.124397
 30
0.0
 40
1.74254
 50
270.000045
 51
286.506319
  0
ARC
  8
FRONTVIEW
 10
145.140305
 20
162.444315
 30
0.0
 40
0.983514
 50
210.070176
 51
227.284945
  0
ARC
  8
FRONTVIEW
 10
144.851698
 20
162.277215
 30
0.0
 40
0.650023
 50
179.999984
 51
210.070156
  0
ARC
  8
FRONTVIEW
 10
144.851698
 20
162.277216
 30
0.0
 40
0.650024
 50
149.929849
 51
180.000021
  0
ARC
  8
FRONTVIEW
 10
145.140302
 20
162.110119
 30
0.0
 40
0.98351
 50
125.580444
 51
149.929874
  0
ARC
  8
FRONTVIEW
 10
145.3291
 20
161.84622
 30
0.0
 40
1.307991
 50
106.506409
 51
125.580473
  0
ARC
  8
FRONTVIEW
 10
145.452564
 20
161.429574
 30
0.0
 40
1.742544
 50
94.446912
 51
106.506318
  0
ARC
  8
FRONTVIEW
 10
145.452563
 20
163.124397
 30
0.0
 40
1.74254
 50
253.493681
 51
269.999955
  0
ARC
  8
FRONTVIEW
 10
145.329094
 20
162.707744
 30
0.0
 40
1.307978
 50
243.334254
 51
253.493685
  0
ARC
  8
FRONTVIEW
 10
145.536779
 20
163.741577
 30
0.0
 40
0.096276
 50
26.058138
 51
90.000027
  0
ARC
  8
FRONTVIEW
 10
144.123088
 20
163.050293
 30
0.0
 40
1.669932
 50
19.796937
 51
26.058266
  0
ARC
  8
FRONTVIEW
 10
149.821656
 20
162.468739
 30
0.0
 40
4.599424
 50
168.549831
 51
171.317764
  0
ARC
  8
FRONTVIEW
 10
146.950495
 20
163.050284
 30
0.0
 40
1.66996
 50
153.941824
 51
168.549851
  0
ARC
  8
FRONTVIEW
 10
145.536779
 20
163.741577
 30
0.0
 40
0.096276
 50
89.999937
 51
153.941826
  0
ARC
  8
FRONTVIEW
 10
141.847103
 20
161.971807
 30
0.0
 40
3.992136
 50
348.549808
 51
352.010674
  0
ARC
  8
FRONTVIEW
 10
144.123063
 20
161.510817
 30
0.0
 40
1.669959
 50
333.941804
 51
348.54983
  0
ARC
  8
FRONTVIEW
 10
145.536779
 20
160.819523
 30
0.0
 40
0.096276
 50
270.00003
 51
333.941919
  0
ARC
  8
FRONTVIEW
 10
145.536779
 20
160.819523
 30
0.0
 40
0.096276
 50
206.058117
 51
270.000006
  0
ARC
  8
FRONTVIEW
 10
146.950495
 20
161.510817
 30
0.0
 40
1.669959
 50
191.450154
 51
206.058181
  0
ARC
  8
FRONTVIEW
 10
149.226668
 20
161.971843
 30
0.0
 40
3.992352
 50
188.358819
 51
191.450083
  0
ARC
  8
FRONTVIEW
 10
141.857077
 20
156.575822
 30
0.0
 40
7.016623
 50
47.178359
 51
48.30991
  0
ARC
  8
FRONTVIEW
 10
144.947261
 20
159.91039
 30
0.0
 40
2.470351
 50
35.590662
 51
47.17836
  0
ARC
  8
FRONTVIEW
 10
146.893448
 20
161.302788
 30
0.0
 40
0.077093
 50
325.888644
 51
35.590677
  0
ARC
  8
FRONTVIEW
 10
148.401221
 20
167.293663
 30
0.0
 40
6.072585
 50
227.178319
 51
228.469064
  0
ARC
  8
FRONTVIEW
 10
145.952712
 20
164.651523
 30
0.0
 40
2.470351
 50
215.590671
 51
227.178369
  0
ARC
  8
FRONTVIEW
 10
144.006526
 20
163.25867
 30
0.0
 40
0.077093
 50
145.888644
 51
215.590677
  0
ARC
  8
FRONTVIEW
 10
144.006526
 20
163.25867
 30
0.0
 40
0.077094
 50
76.186623
 51
145.888656
  0
ARC
  8
FRONTVIEW
 10
143.435113
 20
160.934629
 30
0.0
 40
2.47035
 50
64.598944
 51
76.186642
  0
ARC
  8
FRONTVIEW
 10
141.890027
 20
157.680823
 30
0.0
 40
6.07237
 50
61.707948
 51
64.599024
  0
ARC
  8
FRONTVIEW
 10
146.893448
 20
161.302788
 30
0.0
 40
0.077094
 50
256.186623
 51
325.888656
  0
ARC
  8
FRONTVIEW
 10
147.464861
 20
163.626828
 30
0.0
 40
2.47035
 50
244.598944
 51
256.186642
  0
ARC
  8
FRONTVIEW
 10
149.010065
 20
166.881324
 30
0.0
 40
6.072632
 50
241.807185
 51
244.598955
  0
ARC
  8
FRONTVIEW
 10
144.016191
 20
161.297915
 30
0.0
 40
0.067942
 50
142.874757
 51
214.376124
  0
ARC
  8
FRONTVIEW
 10
146.125767
 20
159.701447
 30
0.0
 40
2.713783
 50
132.266064
 51
142.874701
  0
ARC
  8
FRONTVIEW
 10
148.811853
 20
156.745956
 30
0.0
 40
6.707527
 50
131.136718
 51
132.26603
  0
ARC
  8
FRONTVIEW
 10
141.043795
 20
168.355925
 30
0.0
 40
7.75561
 50
296.485995
 51
298.480172
  0
ARC
  8
FRONTVIEW
 10
143.292345
 20
163.842816
 30
0.0
 40
2.713783
 50
285.877352
 51
296.485989
  0
ARC
  8
FRONTVIEW
 10
144.016191
 20
161.297915
 30
0.0
 40
0.067942
 50
214.375979
 51
285.877346
  0
ARC
  8
FRONTVIEW
 10
149.423827
 20
157.163989
 30
0.0
 40
6.708042
 50
116.486045
 51
119.187413
  0
ARC
  8
FRONTVIEW
 10
147.642467
 20
160.739022
 30
0.0
 40
2.713783
 50
105.877365
 51
116.486002
  0
ARC
  8
FRONTVIEW
 10
146.91862
 20
163.283922
 30
0.0
 40
0.067942
 50
34.376009
 51
105.877376
  0
ARC
  8
FRONTVIEW
 10
146.91862
 20
163.283922
 30
0.0
 40
0.067942
 50
322.87467
 51
34.376037
  0
ARC
  8
FRONTVIEW
 10
144.809044
 20
164.880846
 30
0.0
 40
2.713783
 50
312.266064
 51
322.874701
  0
ARC
  8
FRONTVIEW
 10
142.122428
 20
167.836921
 30
0.0
 40
6.708315
 50
310.789319
 51
312.26603
  0
ARC
  8
FRONTVIEW
 10
143.435668
 20
162.286081
 30
0.0
 40
0.074004
 50
107.770486
 51
179.999953
  0
ARC
  8
FRONTVIEW
 10
144.404388
 20
159.263518
 30
0.0
 40
3.248009
 50
97.562078
 51
107.770471
  0
ARC
  8
FRONTVIEW
 10
145.03542
 20
154.510129
 30
0.0
 40
8.0431
 50
95.609002
 51
97.562053
  0
ARC
  8
FRONTVIEW
 10
145.201088
 20
171.309934
 30
0.0
 40
9.30195
 50
262.437931
 51
264.068511
  0
ARC
  8
FRONTVIEW
 10
144.404388
 20
165.308644
 30
0.0
 40
3.248009
 50
252.229529
 51
262.437922
  0
ARC
  8
FRONTVIEW
 10
143.435668
 20
162.286081
 30
0.0
 40
0.074004
 50
180.000001
 51
252.229468
  0
ARC
  8
FRONTVIEW
 10
145.889345
 20
154.510175
 30
0.0
 40
8.043055
 50
82.437943
 51
84.517235
  0
ARC
  8
FRONTVIEW
 10
146.520372
 20
159.263518
 30
0.0
 40
3.248008
 50
72.229526
 51
82.437919
  0
ARC
  8
FRONTVIEW
 10
147.489093
 20
162.286081
 30
0.0
 40
0.074004
 50
0.000047
 51
72.229514
  0
ARC
  8
FRONTVIEW
 10
147.489093
 20
162.286081
 30
0.0
 40
0.074004
 50
287.770532
 51
359.999999
  0
ARC
  8
FRONTVIEW
 10
146.520372
 20
165.308644
 30
0.0
 40
3.248008
 50
277.562081
 51
287.770474
  0
ARC
  8
FRONTVIEW
 10
145.889351
 20
170.061958
 30
0.0
 40
8.043025
 50
275.603748
 51
277.562045
  0
LINE
  8
FRONTVIEW
 10
145.373449
 20
161.509906
 30
0.0
 11
145.343512
 21
161.385272
 31
0.0
  0
LINE
  8
FRONTVIEW
 10
145.633227
 20
161.621869
 30
0.0
 11
145.588037
 21
161.387131
 31
0.0
  0
LINE
  8
FRONTVIEW
 10
145.045497
 20
161.477943
 30
0.0
 11
145.037211
 21
161.432205
 31
0.0
  0
LINE
  8
FRONTVIEW
 10
145.407721
 20
161.513199
 30
0.0
 11
145.045497
 21
161.478399
 31
0.0
  0
LINE
  8
FRONTVIEW
 10
145.617243
 20
161.612628
 30
0.0
 11
145.407721
 21
161.513199
 31
0.0
  0
LINE
  8
FRONTVIEW
 10
145.837375
 20
161.739898
 30
0.0
 11
145.617243
 21
161.612628
 31
0.0
  0
LINE
  8
FRONTVIEW
 10
145.837375
 20
161.739898
 30
0.0
 11
146.452253
 21
161.739898
 31
0.0
  0
LINE
  8
FRONTVIEW
 10
145.375897
 20
162.2709
 30
0.0
 11
144.203859
 21
162.2709
 31
0.0
  0
LINE
  8
FRONTVIEW
 10
145.350348
 20
162.030539
 30
0.0
 11
144.250299
 21
162.030539
 31
0.0
  0
LINE
  8
FRONTVIEW
 10
144.548327
 20
162.027248
 30
0.0
 11
144.623661
 21
161.760298
 31
0.0
  0
LINE
  8
FRONTVIEW
 10
144.49861
 20
162.27085
 30
0.0
 11
144.548327
 21
162.027248
 31
0.0
  0
LINE
  8
FRONTVIEW
 10
144.557797
 20
162.528372
 30
0.0
 11
144.49861
 21
162.27085
 31
0.0
  0
LINE
  8
FRONTVIEW
 10
144.69156
 20
162.853506
 30
0.0
 11
144.557797
 21
162.528372
 31
0.0
  0
LINE
  8
FRONTVIEW
 10
145.060572
 20
163.127456
 30
0.0
 11
144.69156
 21
162.853506
 31
0.0
  0
LINE
  8
FRONTVIEW
 10
144.851364
 20
162.027248
 30
0.0
 11
144.914102
 21
161.836344
 31
0.0
  0
LINE
  8
FRONTVIEW
 10
144.81822
 20
162.27085
 30
0.0
 11
144.851364
 21
162.027248
 31
0.0
  0
LINE
  8
FRONTVIEW
 10
144.856099
 20
162.528372
 30
0.0
 11
144.81822
 21
162.27085
 31
0.0
  0
LINE
  8
FRONTVIEW
 10
144.927124
 20
162.853506
 30
0.0
 11
144.856099
 21
162.528372
 31
0.0
  0
LINE
  8
FRONTVIEW
 10
145.145749
 20
163.144895
 30
0.0
 11
144.927124
 21
162.853506
 31
0.0
  0
LINE
  8
FRONTVIEW
 10
145.146115
 20
162.27085
 30
0.0
 11
145.187061
 21
161.932817
 31
0.0
  0
LINE
  8
FRONTVIEW
 10
145.203209
 20
162.823466
 30
0.0
 11
145.146115
 21
162.27085
 31
0.0
  0
LINE
  8
FRONTVIEW
 10
145.339066
 20
162.528372
 30
0.0
 11
144.25476
 21
162.528372
 31
0.0
  0
LINE
  8
FRONTVIEW
 10
145.189204
 20
162.854681
 30
0.0
 11
144.497713
 21
162.854681
 31
0.0
  0
LINE
  8
FRONTVIEW
 10
146.097841
 20
162.01134
 30
0.0
 11
146.65563
 21
162.01134
 31
0.0
  0
LINE
  8
FRONTVIEW
 10
145.85044
 20
161.852253
 30
0.0
 11
146.097841
 21
162.01134
 31
0.0
  0
LINE
  8
FRONTVIEW
 10
145.799804
 20
161.416806
 30
0.0
 11
145.85044
 21
161.852253
 31
0.0
  0
LINE
  8
FRONTVIEW
 10
145.793507
 20
162.313416
 30
0.0
 11
146.130596
 21
162.267755
 31
0.0
  0
LINE
  8
FRONTVIEW
 10
146.029184
 20
161.742881
 30
0.0
 11
145.951057
 21
161.453542
 31
0.0
  0
LINE
  8
FRONTVIEW
 10
146.339713
 20
161.748958
 30
0.0
 11
146.280137
 21
161.605668
 31
0.0
  0
LINE
  8
FRONTVIEW
 10
146.410738
 20
162.032332
 30
0.0
 11
146.339713
 21
161.748958
 31
0.0
  0
LINE
  8
FRONTVIEW
 10
146.441515
 20
162.276928
 30
0.0
 11
146.410738
 21
162.032332
 31
0.0
  0
LINE
  8
FRONTVIEW
 10
146.319602
 20
162.840071
 30
0.0
 11
146.280777
 21
162.94811
 31
0.0
  0
LINE
  8
FRONTVIEW
 10
146.319602
 20
162.840071
 30
0.0
 11
146.402062
 21
162.521412
 31
0.0
  0
LINE
  8
FRONTVIEW
 10
146.133353
 20
162.267867
 30
0.0
 11
146.701548
 21
162.267867
 31
0.0
  0
LINE
  8
FRONTVIEW
 10
145.942771
 20
162.844557
 30
0.0
 11
146.418956
 21
162.844557
 31
0.0
  0
LINE
  8
FRONTVIEW
 10
146.11456
 20
162.527417
 30
0.0
 11
146.130596
 21
162.267755
 31
0.0
  0
LINE
  8
FRONTVIEW
 10
146.032101
 20
162.846076
 30
0.0
 11
146.11456
 21
162.527417
 31
0.0
  0
LINE
  8
FRONTVIEW
 10
146.100209
 20
162.026254
 30
0.0
 11
146.029184
 21
161.742881
 31
0.0
  0
LINE
  8
FRONTVIEW
 10
146.130986
 20
162.27085
 30
0.0
 11
146.100209
 21
162.026254
 31
0.0
  0
LINE
  8
FRONTVIEW
 10
146.402062
 20
162.521412
 30
0.0
 11
146.441125
 21
162.273833
 31
0.0
  0
LINE
  8
FRONTVIEW
 10
146.032735
 20
162.844557
 30
0.0
 11
145.922648
 21
163.108045
 31
0.0
  0
LINE
  8
FRONTVIEW
 10
146.653328
 20
162.527508
 30
0.0
 11
145.883584
 21
162.527378
 31
0.0
  0
LINE
  8
FRONTVIEW
 10
145.433641
 20
163.278767
 30
0.0
 11
145.473112
 21
162.950803
 31
0.0
  0
LINE
  8
FRONTVIEW
 10
145.686637
 20
163.397724
 30
0.0
 11
145.721474
 21
163.177839
 31
0.0
  0
LINE
  8
FRONTVIEW
 10
145.59444
 20
163.129571
 30
0.0
 11
145.571315
 21
162.799565
 31
0.0
  0
LINE
  8
FRONTVIEW
 10
145.62327
 20
162.916479
 30
0.0
 11
145.59444
 21
163.129571
 31
0.0
  0
LINE
  8
FRONTVIEW
 10
145.628976
 20
163.177839
 30
0.0
 11
145.62327
 21
162.916479
 31
0.0
  0
LINE
  8
FRONTVIEW
 10
145.663512
 20
163.019808
 30
0.0
 11
145.628976
 21
163.177839
 31
0.0
  0
ARC
  8
FRONTVIEW
 10
146.318311
 20
163.178001
 30
0.0
 40
0.673637
 50
160.56057
 51
193.581845
  0
LINE
  8
FRONTVIEW
 10
145.584229
 20
163.228431
 30
0.0
 11
145.621876
 21
163.800056
 31
0.0
  0
LINE
  8
FRONTVIEW
 10
145.556042
 20
163.766499
 30
0.0
 11
145.584229
 21
163.228431
 31
0.0
  0
LINE
  8
FRONTVIEW
 10
145.527662
 20
163.379669
 30
0.0
 11
145.556042
 21
163.766499
 31
0.0
  0
LINE
  8
FRONTVIEW
 10
145.447735
 20
163.648818
 30
0.0
 11
145.527662
 21
163.379669
 31
0.0
  0
LINE
  8
FRONTVIEW
 10
145.433641
 20
163.278767
 30
0.0
 11
145.447735
 21
163.648818
 31
0.0
  0
LINE
  8
FRONTVIEW
 10
145.414721
 20
163.480571
 30
0.0
 11
145.433641
 21
163.278767
 31
0.0
  0
LINE
  8
FRONTVIEW
 10
145.386534
 20
163.217168
 30
0.0
 11
145.414721
 21
163.480571
 31
0.0
  0
LINE
  8
FRONTVIEW
 10
145.367614
 20
163.413226
 30
0.0
 11
145.386534
 21
163.217168
 31
0.0
  0
LINE
  8
FRONTVIEW
 10
145.317998
 20
163.174417
 30
0.0
 11
145.367614
 21
163.413226
 31
0.0
  0
ARC
  8
FRONTVIEW
 10
146.37117
 20
163.711676
 30
0.0
 40
0.754489
 50
173.273027
 51
204.21668
  0
ARC
  8
FRONTVIEW
 10
145.918497
 20
163.487014
 30
0.0
 40
0.250235
 50
118.145776
 51
199.813636
  0
LINE
  8
FRONTVIEW
 10
144.976087
 20
161.599976
 30
0.0
 11
144.973577
 21
161.6533
 31
0.0
  0
LINE
  8
FRONTVIEW
 10
145.030723
 20
161.528724
 30
0.0
 11
145.000799
 21
161.605722
 31
0.0
  0
LINE
  8
FRONTVIEW
 10
144.951182
 20
161.844302
 30
0.0
 11
144.473135
 21
161.721691
 31
0.0
  0
LINE
  8
FRONTVIEW
 10
145.29734
 20
162.88734
 30
0.0
 11
145.317998
 21
163.174417
 31
0.0
  0
LINE
  8
FRONTVIEW
 10
145.269926
 20
163.108911
 30
0.0
 11
145.29734
 21
162.88734
 31
0.0
  0
LINE
  8
FRONTVIEW
 10
145.235368
 20
162.846428
 30
0.0
 11
145.269926
 21
163.108911
 31
0.0
  0
LINE
  8
FRONTVIEW
 10
145.21471
 20
162.977669
 30
0.0
 11
145.235368
 21
162.846428
 31
0.0
  0
LINE
  8
FRONTVIEW
 10
145.187296
 20
162.846428
 30
0.0
 11
145.21471
 21
162.977669
 31
0.0
  0
ARC
  8
FRONTVIEW
 10
146.04829
 20
163.55801
 30
0.0
 40
0.28951
 50
148.875368
 51
216.031052
  0
ARC
  8
FRONTVIEW
 10
144.361591
 20
162.257177
 30
0.0
 40
1.014399
 50
342.873466
 51
35.512937
  0
ARC
  8
FRONTVIEW
 10
144.855725
 20
162.868796
 30
0.0
 40
1.0899
 50
329.36484
 51
28.431967
  0
LINE
  8
FRONTVIEW
 10
145.152738
 20
161.924288
 30
0.0
 11
144.951182
 21
161.844302
 31
0.0
  0
LINE
  8
FRONTVIEW
 10
145.276683
 20
161.955087
 30
0.0
 11
145.152738
 21
161.924288
 31
0.0
  0
ARC
  8
FRONTVIEW
 10
145.306474
 20
161.914345
 30
0.0
 40
0.050472
 50
295.777135
 51
126.174908
  0
LINE
  8
FRONTVIEW
 10
145.08034
 20
161.807526
 30
0.0
 11
145.328423
 21
161.868895
 31
0.0
  0
ARC
  8
FRONTVIEW
 10
145.265395
 20
162.312131
 30
0.0
 40
0.537468
 50
249.86037
 51
306.718536
  0
LINE
  8
FRONTVIEW
 10
145.545423
 20
162.158041
 30
0.0
 11
145.586739
 21
161.881307
 31
0.0
  0
LINE
  8
FRONTVIEW
 10
145.591951
 20
162.182634
 30
0.0
 11
145.545423
 21
162.158041
 31
0.0
  0
LINE
  8
FRONTVIEW
 10
145.633266
 20
162.164247
 30
0.0
 11
145.591951
 21
162.182634
 31
0.0
  0
LINE
  8
FRONTVIEW
 10
145.669369
 20
162.08426
 30
0.0
 11
145.710684
 21
161.801321
 31
0.0
  0
LINE
  8
FRONTVIEW
 10
145.633266
 20
162.170222
 30
0.0
 11
145.669369
 21
162.08426
 31
0.0
  0
LINE
  8
FRONTVIEW
 10
145.653924
 20
162.194816
 30
0.0
 11
145.633266
 21
162.170222
 31
0.0
  0
LINE
  8
FRONTVIEW
 10
145.690026
 20
162.207228
 30
0.0
 11
145.653924
 21
162.194816
 31
0.0
  0
LINE
  8
FRONTVIEW
 10
145.721109
 20
162.176428
 30
0.0
 11
145.690026
 21
162.207228
 31
0.0
  0
LINE
  8
FRONTVIEW
 10
145.783081
 20
161.875101
 30
0.0
 11
145.721109
 21
162.176428
 31
0.0
  0
LINE
  8
FRONTVIEW
 10
145.772656
 20
162.231821
 30
0.0
 11
145.860499
 21
162.274802
 31
0.0
  0
LINE
  8
FRONTVIEW
 10
145.757211
 20
162.139653
 30
0.0
 11
145.772656
 21
162.231821
 31
0.0
  0
LINE
  8
FRONTVIEW
 10
145.783081
 20
161.875101
 30
0.0
 11
145.757211
 21
162.139653
 31
0.0
  0
LINE
  8
FRONTVIEW
 10
145.907026
 20
161.998068
 30
0.0
 11
145.860499
 21
162.274802
 31
0.0
  0
ARC
  8
FRONTVIEW
 10
145.947818
 20
162.176902
 30
0.0
 40
0.075813
 50
319.077108
 51
161.449207
  0
ARC
  8
FRONTVIEW
 10
144.929095
 20
162.785831
 30
0.0
 40
1.261559
 50
274.559046
 51
328.530496
  0
LINE
  8
FRONTVIEW
 10
144.906762
 20
161.469825
 30
0.0
 11
145.029372
 21
161.528264
 31
0.0
  0
TEXT
  8
FRONTVIEW
 10
148.17904
 20
161.86635
 30
0.0
 40
1.103529
  1
Brooks
  7
ROMANT
  0
TEXT
  8
FRONTVIEW
 10
136.400435
 20
161.855797
 30
0.0
 40
1.103529
  1
Cleaver
  7
ROMANT
  0
ENDSEC
  0
EOF
