  0
SECTION
  2
HEADER
  9
$ACADVER
  1
AC1009
  9
$INSBASE
 10
0.0
 20
0.0
 30
0.0
  9
$EXTMIN
 10
37.726339
 20
0.765793
 30
0.0
  9
$EXTMAX
 10
700.27398
 20
405.930415
 30
0.0
  9
$LIMMIN
 10
0.0
 20
0.0
  9
$LIMMAX
 10
550.0
 20
500.0
  9
$ORTHOMODE
 70
     1
  9
$REGENMODE
 70
     1
  9
$FILLMODE
 70
     1
  9
$QTEXTMODE
 70
     0
  9
$MIRRTEXT
 70
     1
  9
$DRAGMODE
 70
     2
  9
$LTSCALE
 40
6.0
  9
$OSMODE
 70
     0
  9
$ATTMODE
 70
     1
  9
$TEXTSIZE
 40
5.0
  9
$TRACEWID
 40
0.05
  9
$TEXTSTYLE
  7
ROMANS
  9
$CLAYER
  8
0
  9
$CELTYPE
  6
CONTINUOUS
  9
$CECOLOR
 62
   256
  9
$DIMSCALE
 40
1.0
  9
$DIMASZ
 40
5.0
  9
$DIMEXO
 40
0.0625
  9
$DIMDLI
 40
0.38
  9
$DIMRND
 40
0.0
  9
$DIMDLE
 40
0.0
  9
$DIMEXE
 40
0.18
  9
$DIMTP
 40
0.0
  9
$DIMTM
 40
0.0
  9
$DIMTXT
 40
4.0
  9
$DIMCEN
 40
0.09
  9
$DIMTSZ
 40
0.0
  9
$DIMTOL
 70
     0
  9
$DIMLIM
 70
     0
  9
$DIMTIH
 70
     1
  9
$DIMTOH
 70
     1
  9
$DIMSE1
 70
     0
  9
$DIMSE2
 70
     0
  9
$DIMTAD
 70
     0
  9
$DIMZIN
 70
     0
  9
$DIMBLK
  1

  9
$DIMASO
 70
     1
  9
$DIMSHO
 70
     0
  9
$DIMPOST
  1

  9
$DIMAPOST
  1

  9
$DIMALT
 70
     0
  9
$DIMALTD
 70
     2
  9
$DIMALTF
 40
25.4
  9
$DIMLFAC
 40
1.0
  9
$DIMTOFL
 70
     0
  9
$DIMTVP
 40
0.0
  9
$DIMTIX
 70
     0
  9
$DIMSOXD
 70
     0
  9
$DIMSAH
 70
     0
  9
$DIMBLK1
  1

  9
$DIMBLK2
  1

  9
$DIMSTYLE
  2
*UNNAMED
  9
$DIMCLRD
 70
     0
  9
$DIMCLRE
 70
     0
  9
$DIMCLRT
 70
     0
  9
$DIMTFAC
 40
1.0
  9
$DIMGAP
 40
0.09
  9
$LUNITS
 70
     2
  9
$LUPREC
 70
     4
  9
$AXISMODE
 70
     0
  9
$AXISUNIT
 10
0.0
 20
0.0
  9
$SKETCHINC
 40
0.1
  9
$FILLETRAD
 40
1.0
  9
$AUNITS
 70
     0
  9
$AUPREC
 70
     0
  9
$MENU
  1
acad
  9
$ELEVATION
 40
0.0
  9
$PELEVATION
 40
0.0
  9
$THICKNESS
 40
0.0
  9
$LIMCHECK
 70
     0
  9
$BLIPMODE
 70
     0
  9
$CHAMFERA
 40
0.0
  9
$CHAMFERB
 40
0.0
  9
$SKPOLY
 70
     0
  9
$TDCREATE
 40
2449703.678880324
  9
$TDUPDATE
 40
2449745.641353009
  9
$TDINDWG
 40
0.0315726852
  9
$TDUSRTIMER
 40
0.0315726852
  9
$USRTIMER
 70
     1
  9
$ANGBASE
 50
0.0
  9
$ANGDIR
 70
     0
  9
$PDMODE
 70
     0
  9
$PDSIZE
 40
0.0
  9
$PLINEWID
 40
0.0
  9
$COORDS
 70
     0
  9
$SPLFRAME
 70
     0
  9
$SPLINETYPE
 70
     6
  9
$SPLINESEGS
 70
     8
  9
$ATTDIA
 70
     1
  9
$ATTREQ
 70
     1
  9
$HANDLING
 70
     0
  9
$HANDSEED
  5
0
  9
$SURFTAB1
 70
     6
  9
$SURFTAB2
 70
     6
  9
$SURFTYPE
 70
     6
  9
$SURFU
 70
     6
  9
$SURFV
 70
     6
  9
$UCSNAME
  2

  9
$UCSORG
 10
0.0
 20
0.0
 30
0.0
  9
$UCSXDIR
 10
1.0
 20
0.0
 30
0.0
  9
$UCSYDIR
 10
0.0
 20
1.0
 30
0.0
  9
$PUCSNAME
  2

  9
$PUCSORG
 10
0.0
 20
0.0
 30
0.0
  9
$PUCSXDIR
 10
1.0
 20
0.0
 30
0.0
  9
$PUCSYDIR
 10
0.0
 20
1.0
 30
0.0
  9
$USERI1
 70
     0
  9
$USERI2
 70
     0
  9
$USERI3
 70
     0
  9
$USERI4
 70
     0
  9
$USERI5
 70
     0
  9
$USERR1
 40
0.0
  9
$USERR2
 40
0.0
  9
$USERR3
 40
0.0
  9
$USERR4
 40
0.0
  9
$USERR5
 40
0.0
  9
$WORLDVIEW
 70
     1
  9
$SHADEDGE
 70
     3
  9
$SHADEDIF
 70
    70
  9
$TILEMODE
 70
     1
  9
$MAXACTVP
 70
    16
  9
$PINSBASE
 10
0.0
 20
0.0
 30
0.0
  9
$PLIMCHECK
 70
     0
  9
$PEXTMIN
 10
1.000000E+20
 20
1.000000E+20
 30
1.000000E+20
  9
$PEXTMAX
 10
-1.000000E+20
 20
-1.000000E+20
 30
-1.000000E+20
  9
$PLIMMIN
 10
0.0
 20
0.0
  9
$PLIMMAX
 10
12.0
 20
9.0
  9
$UNITMODE
 70
     1
  9
$VISRETAIN
 70
     0
  0
ENDSEC
  0
SECTION
  2
TABLES
  0
TABLE
  2
VPORT
 70
     2
  0
VPORT
  2
*ACTIVE
 70
     0
 10
0.0
 20
0.0
 11
1.0
 21
1.0
 12
369.00016
 22
246.799366
 13
0.0
 23
0.0
 14
1.0
 24
1.0
 15
0.0
 25
0.0
 16
0.0
 26
0.0
 36
1.0
 17
0.0
 27
0.0
 37
0.0
 40
491.880919
 41
1.346968
 42
50.0
 43
0.0
 44
0.0
 50
0.0
 51
0.0
 71
     0
 72
   100
 73
     1
 74
     0
 75
     0
 76
     0
 77
     0
 78
     1
  0
ENDTAB
  0
TABLE
  2
LTYPE
 70
     3
  0
LTYPE
  2
CONTINUOUS
 70
    64
  3
Solid line
 72
    65
 73
     0
 40
0.0
  0
LTYPE
  2
DASHED
 70
    64
  3
__ __ __ __ __ __ __ __ __ __ __ __ __ __ __
 72
    65
 73
     2
 40
0.75
 49
0.5
 49
-0.25
  0
LTYPE
  2
CENTER
 70
    64
  3
____ _ ____ _ ____ _ ____ _ ____ _ ____ _ ____
 72
    65
 73
     4
 40
2.0
 49
1.25
 49
-0.25
 49
0.25
 49
-0.25
  0
ENDTAB
  0
TABLE
  2
LAYER
 70
     5
  0
LAYER
  2
0
 70
    64
 62
     7
  6
CONTINUOUS
  0
LAYER
  2
RIGHTSIDE
 70
    64
 62
     1
  6
CONTINUOUS
  0
LAYER
  2
PLANVIEW
 70
    64
 62
     2
  6
CONTINUOUS
  0
LAYER
  2
FRONTVIEW
 70
    64
 62
     3
  6
CONTINUOUS
  0
LAYER
  2
CAPTIONS
 70
    64
 62
     4
  6
CONTINUOUS
  0
ENDTAB
  0
TABLE
  2
STYLE
 70
     4
  0
STYLE
  2
STANDARD
 70
    64
 40
0.0
 41
1.0
 50
0.0
 71
     0
 42
5.5385
  3
txt
  4

  0
STYLE
  2
ROMANS
 70
    64
 40
0.0
 41
1.0
 50
0.0
 71
     0
 42
5.0
  3
ROMANS
  4

  0
STYLE
  2
ROMANT
 70
    64
 40
0.0
 41
1.0
 50
0.0
 71
     0
 42
5.5385
  3
ROMANT
  4

  0
STYLE
  2
ROMAND
 70
    64
 40
0.0
 41
1.0
 50
0.0
 71
     0
 42
2.0
  3
ROMAND
  4

  0
ENDTAB
  0
TABLE
  2
VIEW
 70
     0
  0
ENDTAB
  0
TABLE
  2
UCS
 70
     0
  0
ENDTAB
  0
TABLE
  2
APPID
 70
     1
  0
APPID
  2
ACAD
 70
    64
  0
ENDTAB
  0
TABLE
  2
DIMSTYLE
 70
     0
  0
ENDTAB
  0
ENDSEC
  0
SECTION
  2
BLOCKS
  0
BLOCK
  8
0
  2
GETDAT
 70
    66
 10
0.0
 20
0.0
 30
0.0
  1
GETDAT
  3
GETDAT
  0
ATTDEF
  8
0
 10
0.0
 20
0.0
 30
0.0
 40
1.0
  1
DIMDIAG
  3
DRAWING NAME.(10 CHARS): 
  2
DWGNAM
 70
     1
  0
ATTDEF
  8
0
 10
0.0
 20
0.0
 30
0.0
 40
1.0
  1
B
  3
DRAWING SIZE...(1 CHAR): 
  2
DWGSIZ
 70
     1
  0
ATTDEF
  8
0
 10
0.0
 20
0.0
 30
0.0
 40
1.0
  1
00
  3
REVISION......(2 CHARS): 
  2
DWGREV
 70
     1
  0
ATTDEF
  8
0
 10
0.0
 20
0.0
 30
0.0
 40
1.0
  1
01
  3
SHEET NUMBER..(2 CHARS): 
  2
DWGSHT
 70
     1
  0
ATTDEF
  8
0
 10
0.0
 20
0.0
 30
0.0
 40
1.0
  1
01
  3
OF............(2 CHARS): 
  2
DWGOF
 70
     1
  0
ATTDEF
  8
0
 10
0.0
 20
0.0
 30
0.0
 40
1.0
  1
 
  3
DISTRIBUTION..(2 CHARS): 
  2
DWGDIST
 70
     1
  0
ATTDEF
  8
0
 10
0.0
 20
0.0
 30
0.0
 40
1.0
  1
01
  3
QUANTITY......(2 CHARS): 
  2
DWGQUAN
 70
     1
  0
ATTDEF
  8
0
 10
0.0
 20
0.0
 30
0.0
 40
1.0
  1
 
  3
DESCRIPTION..(31 CHARS): 
  2
DWGDESC
 70
     1
  0
ATTDEF
  8
0
 10
0.0
 20
0.0
 30
0.0
 40
1.0
  1
 
  3
YOUR NAME....(17 CHARS): 
  2
DRWN
 70
     1
  0
ATTDEF
  8
0
 10
0.0
 20
0.0
 30
0.0
 40
1.0
  1
10/14/92
  3
TODAY'S DATE..(8 CHARS): 
  2
DATE
 70
     1
  0
ATTDEF
  8
0
 10
0.0
 20
0.0
 30
0.0
 40
1.0
  1
01 
  3
FILE..........(3 CHARS): 
  2
FILE
 70
     1
  0
ENDBLK
  8
0
  0
BLOCK
  8
0
  6
CONTINUOUS
 62
     4
  2
NAME
 70
    64
 10
0.0
 20
0.0
 30
0.0
  3
NAME
  0
POLYLINE
  8
FRONTVIEW
  6
CONTINUOUS
 66
     1
 10
0.0
 20
0.0
 30
0.0
 70
     1
 40
0.061612
 41
0.061612
  0
VERTEX
  8
FRONTVIEW
  6
CONTINUOUS
 10
8.878971
 20
-1.130954
 30
0.0
  0
VERTEX
  8
FRONTVIEW
  6
CONTINUOUS
 10
8.878971
 20
1.130954
 30
0.0
 42
0.414214
  0
VERTEX
  8
FRONTVIEW
  6
CONTINUOUS
 10
8.26285
 20
1.747076
 30
0.0
  0
VERTEX
  8
FRONTVIEW
  6
CONTINUOUS
 10
-8.26285
 20
1.747076
 30
0.0
 42
0.414214
  0
VERTEX
  8
FRONTVIEW
  6
CONTINUOUS
 10
-8.878971
 20
1.130954
 30
0.0
  0
VERTEX
  8
FRONTVIEW
  6
CONTINUOUS
 10
-8.878971
 20
-1.130954
 30
0.0
 42
0.414214
  0
VERTEX
  8
FRONTVIEW
  6
CONTINUOUS
 10
-8.26285
 20
-1.747076
 30
0.0
  0
VERTEX
  8
FRONTVIEW
  6
CONTINUOUS
 10
8.26285
 20
-1.747076
 30
0.0
 42
0.414214
  0
SEQEND
  8
FRONTVIEW
  6
CONTINUOUS
  0
ARC
  8
FRONTVIEW
 10
-0.103596
 20
-0.798704
 30
0.0
 40
1.613927
 50
73.493764
 51
74.4082
  0
ARC
  8
FRONTVIEW
 10
0.010754
 20
-0.412804
 30
0.0
 40
1.211441
 50
54.419527
 51
73.493591
  0
ARC
  8
FRONTVIEW
 10
0.185617
 20
-0.168384
 30
0.0
 40
0.910912
 50
30.070114
 51
54.419544
  0
ARC
  8
FRONTVIEW
 10
0.452916
 20
-0.013622
 30
0.0
 40
0.602042
 50
359.999979
 51
30.070151
  0
ARC
  8
FRONTVIEW
 10
0.576537
 20
-0.054686
 30
0.0
 40
0.480181
 50
329.929866
 51
4.905749
  0
ARC
  8
FRONTVIEW
 10
0.148354
 20
0.193224
 30
0.0
 40
0.974953
 50
305.580464
 51
329.929893
  0
ARC
  8
FRONTVIEW
 10
0.010754
 20
0.38556
 30
0.0
 40
1.211441
 50
286.506409
 51
305.580473
  0
ARC
  8
FRONTVIEW
 10
-0.103595
 20
0.771025
 30
0.0
 40
1.613914
 50
270.000045
 51
286.506319
  0
ARC
  8
FRONTVIEW
 10
-0.3928
 20
0.141143
 30
0.0
 40
0.910916
 50
210.070176
 51
227.284945
  0
ARC
  8
FRONTVIEW
 10
-0.660104
 20
-0.013622
 30
0.0
 40
0.602042
 50
179.999984
 51
210.070156
  0
ARC
  8
FRONTVIEW
 10
-0.660104
 20
-0.013622
 30
0.0
 40
0.602042
 50
149.929849
 51
180.000021
  0
ARC
  8
FRONTVIEW
 10
-0.392804
 20
-0.168384
 30
0.0
 40
0.910912
 50
125.580444
 51
149.929874
  0
ARC
  8
FRONTVIEW
 10
-0.217942
 20
-0.412804
 30
0.0
 40
1.211441
 50
106.506409
 51
125.580473
  0
ARC
  8
FRONTVIEW
 10
-0.103591
 20
-0.798694
 30
0.0
 40
1.613918
 50
94.446912
 51
106.506318
  0
ARC
  8
FRONTVIEW
 10
-0.103592
 20
0.771025
 30
0.0
 40
1.613914
 50
253.493681
 51
269.999955
  0
ARC
  8
FRONTVIEW
 10
-0.217947
 20
0.385127
 30
0.0
 40
1.211429
 50
243.334254
 51
253.493685
  0
ARC
  8
FRONTVIEW
 10
-0.025593
 20
1.342647
 30
0.0
 40
0.089169
 50
26.058138
 51
90.000027
  0
ARC
  8
FRONTVIEW
 10
-1.334931
 20
0.702391
 30
0.0
 40
1.546665
 50
19.796937
 51
26.058266
  0
ARC
  8
FRONTVIEW
 10
3.942995
 20
0.163764
 30
0.0
 40
4.259916
 50
168.549831
 51
171.317764
  0
ARC
  8
FRONTVIEW
 10
1.28377
 20
0.702382
 30
0.0
 40
1.546691
 50
153.941824
 51
168.549851
  0
ARC
  8
FRONTVIEW
 10
-0.025593
 20
1.342647
 30
0.0
 40
0.089169
 50
89.999937
 51
153.941826
  0
ARC
  8
FRONTVIEW
 10
-3.442913
 20
-0.296487
 30
0.0
 40
3.697455
 50
348.549808
 51
352.010674
  0
ARC
  8
FRONTVIEW
 10
-1.334955
 20
-0.723448
 30
0.0
 40
1.546691
 50
333.941804
 51
348.54983
  0
ARC
  8
FRONTVIEW
 10
-0.025593
 20
-1.363714
 30
0.0
 40
0.089169
 50
270.00003
 51
333.941919
  0
ARC
  8
FRONTVIEW
 10
-0.025593
 20
-1.363714
 30
0.0
 40
0.089169
 50
206.058117
 51
270.000006
  0
ARC
  8
FRONTVIEW
 10
1.283769
 20
-0.723449
 30
0.0
 40
1.54669
 50
191.450154
 51
206.058181
  0
ARC
  8
FRONTVIEW
 10
3.391926
 20
-0.296454
 30
0.0
 40
3.697655
 50
188.358819
 51
191.450083
  0
ARC
  8
FRONTVIEW
 10
-3.433676
 20
-5.294165
 30
0.0
 40
6.498688
 50
47.178359
 51
48.30991
  0
ARC
  8
FRONTVIEW
 10
-0.571595
 20
-2.205739
 30
0.0
 40
2.288001
 50
35.590662
 51
47.17836
  0
ARC
  8
FRONTVIEW
 10
1.230933
 20
-0.916122
 30
0.0
 40
0.071403
 50
325.888644
 51
35.590677
  0
ARC
  8
FRONTVIEW
 10
2.62741
 20
4.632534
 30
0.0
 40
5.624335
 50
227.178319
 51
228.469064
  0
ARC
  8
FRONTVIEW
 10
0.359639
 20
2.185425
 30
0.0
 40
2.288001
 50
215.590671
 51
227.178369
  0
ARC
  8
FRONTVIEW
 10
-1.442889
 20
0.895386
 30
0.0
 40
0.071403
 50
145.888644
 51
215.590677
  0
ARC
  8
FRONTVIEW
 10
-1.442889
 20
0.895386
 30
0.0
 40
0.071403
 50
76.186623
 51
145.888656
  0
ARC
  8
FRONTVIEW
 10
-1.972123
 20
-1.257105
 30
0.0
 40
2.288
 50
64.598944
 51
76.186642
  0
ARC
  8
FRONTVIEW
 10
-3.403158
 20
-4.270731
 30
0.0
 40
5.624136
 50
61.707948
 51
64.599024
  0
ARC
  8
FRONTVIEW
 10
1.230933
 20
-0.916122
 30
0.0
 40
0.071403
 50
256.186623
 51
325.888656
  0
ARC
  8
FRONTVIEW
 10
1.760168
 20
1.236369
 30
0.0
 40
2.288
 50
244.598944
 51
256.186642
  0
ARC
  8
FRONTVIEW
 10
3.191312
 20
4.250633
 30
0.0
 40
5.624378
 50
241.807185
 51
244.598955
  0
ARC
  8
FRONTVIEW
 10
-1.433937
 20
-0.920635
 30
0.0
 40
0.062927
 50
142.874757
 51
214.376124
  0
ARC
  8
FRONTVIEW
 10
0.519919
 20
-2.399259
 30
0.0
 40
2.513464
 50
132.266064
 51
142.874701
  0
ARC
  8
FRONTVIEW
 10
3.007731
 20
-5.136589
 30
0.0
 40
6.212408
 50
131.136718
 51
132.26603
  0
ARC
  8
FRONTVIEW
 10
-4.186925
 20
5.616385
 30
0.0
 40
7.183126
 50
296.485995
 51
298.480172
  0
ARC
  8
FRONTVIEW
 10
-2.104353
 20
1.436413
 30
0.0
 40
2.513464
 50
285.877352
 51
296.485989
  0
ARC
  8
FRONTVIEW
 10
-1.433937
 20
-0.920635
 30
0.0
 40
0.062927
 50
214.375979
 51
285.877346
  0
ARC
  8
FRONTVIEW
 10
3.574532
 20
-4.749414
 30
0.0
 40
6.212885
 50
116.486045
 51
119.187413
  0
ARC
  8
FRONTVIEW
 10
1.924663
 20
-1.438274
 30
0.0
 40
2.513464
 50
105.877365
 51
116.486002
  0
ARC
  8
FRONTVIEW
 10
1.254247
 20
0.918774
 30
0.0
 40
0.062927
 50
34.376009
 51
105.877376
  0
ARC
  8
FRONTVIEW
 10
1.254247
 20
0.918774
 30
0.0
 40
0.062927
 50
322.87467
 51
34.376037
  0
ARC
  8
FRONTVIEW
 10
-0.699609
 20
2.397821
 30
0.0
 40
2.513464
 50
312.266064
 51
322.874701
  0
ARC
  8
FRONTVIEW
 10
-3.187912
 20
5.135691
 30
0.0
 40
6.213138
 50
310.789319
 51
312.26603
  0
ARC
  8
FRONTVIEW
 10
-1.971609
 20
-0.005411
 30
0.0
 40
0.068541
 50
107.770486
 51
179.999953
  0
ARC
  8
FRONTVIEW
 10
-1.074395
 20
-2.804863
 30
0.0
 40
3.008256
 50
97.562078
 51
107.770471
  0
ARC
  8
FRONTVIEW
 10
-0.489943
 20
-7.207378
 30
0.0
 40
7.449396
 50
95.609002
 51
97.562053
  0
ARC
  8
FRONTVIEW
 10
-0.336505
 20
8.352343
 30
0.0
 40
8.615323
 50
262.437931
 51
264.068511
  0
ARC
  8
FRONTVIEW
 10
-1.074395
 20
2.794041
 30
0.0
 40
3.008256
 50
252.229529
 51
262.437922
  0
ARC
  8
FRONTVIEW
 10
-1.971609
 20
-0.005411
 30
0.0
 40
0.068541
 50
180.000001
 51
252.229468
  0
ARC
  8
FRONTVIEW
 10
0.300949
 20
-7.207336
 30
0.0
 40
7.449354
 50
82.437943
 51
84.517235
  0
ARC
  8
FRONTVIEW
 10
0.885396
 20
-2.804862
 30
0.0
 40
3.008255
 50
72.229526
 51
82.437919
  0
ARC
  8
FRONTVIEW
 10
1.782611
 20
-0.005411
 30
0.0
 40
0.068541
 50
0.000047
 51
72.229514
  0
ARC
  8
FRONTVIEW
 10
1.78261
 20
-0.005411
 30
0.0
 40
0.068541
 50
287.770532
 51
359.999999
  0
ARC
  8
FRONTVIEW
 10
0.885396
 20
2.79404
 30
0.0
 40
3.008255
 50
277.562081
 51
287.770474
  0
ARC
  8
FRONTVIEW
 10
0.300954
 20
7.196487
 30
0.0
 40
7.449326
 50
275.603748
 51
277.562045
  0
LINE
  8
FRONTVIEW
 10
-0.176866
 20
-0.724292
 30
0.0
 11
-0.204593
 21
-0.839726
 31
0.0
  0
LINE
  8
FRONTVIEW
 10
0.063736
 20
-0.620593
 30
0.0
 11
0.021882
 21
-0.838004
 31
0.0
  0
LINE
  8
FRONTVIEW
 10
-0.48061
 20
-0.753896
 30
0.0
 11
-0.488284
 21
-0.796257
 31
0.0
  0
LINE
  8
FRONTVIEW
 10
-0.145124
 20
-0.721242
 30
0.0
 11
-0.48061
 21
-0.753474
 31
0.0
  0
LINE
  8
FRONTVIEW
 10
0.048932
 20
-0.629152
 30
0.0
 11
-0.145124
 21
-0.721242
 31
0.0
  0
LINE
  8
FRONTVIEW
 10
0.252815
 20
-0.511277
 30
0.0
 11
0.048932
 21
-0.629152
 31
0.0
  0
LINE
  8
FRONTVIEW
 10
0.252815
 20
-0.511277
 30
0.0
 11
0.822306
 21
-0.511277
 31
0.0
  0
LINE
  8
FRONTVIEW
 10
-0.174599
 20
-0.019471
 30
0.0
 11
-1.260122
 21
-0.019471
 31
0.0
  0
LINE
  8
FRONTVIEW
 10
-0.198262
 20
-0.24209
 30
0.0
 11
-1.217111
 21
-0.24209
 31
0.0
  0
LINE
  8
FRONTVIEW
 10
-0.941081
 20
-0.245138
 30
0.0
 11
-0.871309
 21
-0.492383
 31
0.0
  0
LINE
  8
FRONTVIEW
 10
-0.987128
 20
-0.019518
 30
0.0
 11
-0.941081
 21
-0.245138
 31
0.0
  0
LINE
  8
FRONTVIEW
 10
-0.93231
 20
0.218995
 30
0.0
 11
-0.987128
 21
-0.019518
 31
0.0
  0
LINE
  8
FRONTVIEW
 10
-0.808422
 20
0.520129
 30
0.0
 11
-0.93231
 21
0.218995
 31
0.0
  0
LINE
  8
FRONTVIEW
 10
-0.466648
 20
0.773858
 30
0.0
 11
-0.808422
 21
0.520129
 31
0.0
  0
LINE
  8
FRONTVIEW
 10
-0.660413
 20
-0.245138
 30
0.0
 11
-0.602306
 21
-0.42195
 31
0.0
  0
LINE
  8
FRONTVIEW
 10
-0.691111
 20
-0.019518
 30
0.0
 11
-0.660413
 21
-0.245138
 31
0.0
  0
LINE
  8
FRONTVIEW
 10
-0.656028
 20
0.218995
 30
0.0
 11
-0.691111
 21
-0.019518
 31
0.0
  0
LINE
  8
FRONTVIEW
 10
-0.590246
 20
0.520129
 30
0.0
 11
-0.656028
 21
0.218995
 31
0.0
  0
LINE
  8
FRONTVIEW
 10
-0.387759
 20
0.790009
 30
0.0
 11
-0.590246
 21
0.520129
 31
0.0
  0
LINE
  8
FRONTVIEW
 10
-0.387419
 20
-0.019518
 30
0.0
 11
-0.349496
 21
-0.332599
 31
0.0
  0
LINE
  8
FRONTVIEW
 10
-0.33454
 20
0.492307
 30
0.0
 11
-0.387419
 21
-0.019518
 31
0.0
  0
LINE
  8
FRONTVIEW
 10
-0.208711
 20
0.218996
 30
0.0
 11
-1.212979
 21
0.218996
 31
0.0
  0
LINE
  8
FRONTVIEW
 10
-0.347511
 20
0.521218
 30
0.0
 11
-0.987959
 21
0.521218
 31
0.0
  0
LINE
  8
FRONTVIEW
 10
0.494055
 20
-0.259872
 30
0.0
 11
1.01067
 21
-0.259872
 31
0.0
  0
LINE
  8
FRONTVIEW
 10
0.264915
 20
-0.407216
 30
0.0
 11
0.494055
 21
-0.259872
 31
0.0
  0
LINE
  8
FRONTVIEW
 10
0.218017
 20
-0.81052
 30
0.0
 11
0.264915
 21
-0.407216
 31
0.0
  0
LINE
  8
FRONTVIEW
 10
0.212185
 20
0.019906
 30
0.0
 11
0.524392
 21
-0.022384
 31
0.0
  0
LINE
  8
FRONTVIEW
 10
0.430466
 20
-0.508515
 30
0.0
 11
0.358106
 21
-0.776496
 31
0.0
  0
LINE
  8
FRONTVIEW
 10
0.718073
 20
-0.502886
 30
0.0
 11
0.662894
 21
-0.635599
 31
0.0
  0
LINE
  8
FRONTVIEW
 10
0.783855
 20
-0.240429
 30
0.0
 11
0.718073
 21
-0.502886
 31
0.0
  0
LINE
  8
FRONTVIEW
 10
0.81236
 20
-0.013888
 30
0.0
 11
0.783855
 21
-0.240429
 31
0.0
  0
LINE
  8
FRONTVIEW
 10
0.699446
 20
0.507686
 30
0.0
 11
0.663487
 21
0.60775
 31
0.0
  0
LINE
  8
FRONTVIEW
 10
0.699446
 20
0.507686
 30
0.0
 11
0.775819
 21
0.212549
 31
0.0
  0
LINE
  8
FRONTVIEW
 10
0.526946
 20
-0.02228
 30
0.0
 11
1.053199
 21
-0.02228
 31
0.0
  0
LINE
  8
FRONTVIEW
 10
0.350431
 20
0.511841
 30
0.0
 11
0.791467
 21
0.511841
 31
0.0
  0
LINE
  8
FRONTVIEW
 10
0.50954
 20
0.218111
 30
0.0
 11
0.524392
 21
-0.022384
 31
0.0
  0
LINE
  8
FRONTVIEW
 10
0.433167
 20
0.513248
 30
0.0
 11
0.50954
 21
0.218111
 31
0.0
  0
LINE
  8
FRONTVIEW
 10
0.496247
 20
-0.246059
 30
0.0
 11
0.430466
 21
-0.508515
 31
0.0
  0
LINE
  8
FRONTVIEW
 10
0.524753
 20
-0.019518
 30
0.0
 11
0.496247
 21
-0.246059
 31
0.0
  0
LINE
  8
FRONTVIEW
 10
0.775819
 20
0.212549
 30
0.0
 11
0.811999
 21
-0.016755
 31
0.0
  0
LINE
  8
FRONTVIEW
 10
0.433755
 20
0.511841
 30
0.0
 11
0.331793
 21
0.755879
 31
0.0
  0
LINE
  8
FRONTVIEW
 10
1.008538
 20
0.218195
 30
0.0
 11
0.295613
 21
0.218074
 31
0.0
  0
LINE
  8
FRONTVIEW
 10
-0.121117
 20
0.913999
 30
0.0
 11
-0.08456
 21
0.610244
 31
0.0
  0
LINE
  8
FRONTVIEW
 10
0.113204
 20
1.024176
 30
0.0
 11
0.145469
 21
0.820522
 31
0.0
  0
LINE
  8
FRONTVIEW
 10
0.027812
 20
0.775817
 30
0.0
 11
0.006394
 21
0.47017
 31
0.0
  0
LINE
  8
FRONTVIEW
 10
0.054514
 20
0.578454
 30
0.0
 11
0.027812
 21
0.775817
 31
0.0
  0
LINE
  8
FRONTVIEW
 10
0.059799
 20
0.820522
 30
0.0
 11
0.054514
 21
0.578454
 31
0.0
  0
LINE
  8
FRONTVIEW
 10
0.091786
 20
0.674155
 30
0.0
 11
0.059799
 21
0.820522
 31
0.0
  0
ARC
  8
FRONTVIEW
 10
0.698251
 20
0.820671
 30
0.0
 40
0.623912
 50
160.56057
 51
193.581845
  0
LINE
  8
FRONTVIEW
 10
0.018355
 20
0.867379
 30
0.0
 11
0.053223
 21
1.396809
 31
0.0
  0
LINE
  8
FRONTVIEW
 10
-0.007751
 20
1.365729
 30
0.0
 11
0.018355
 21
0.867379
 31
0.0
  0
LINE
  8
FRONTVIEW
 10
-0.034037
 20
1.007453
 30
0.0
 11
-0.007751
 21
1.365729
 31
0.0
  0
LINE
  8
FRONTVIEW
 10
-0.108064
 20
1.256735
 30
0.0
 11
-0.034037
 21
1.007453
 31
0.0
  0
LINE
  8
FRONTVIEW
 10
-0.121117
 20
0.913999
 30
0.0
 11
-0.108064
 21
1.256735
 31
0.0
  0
LINE
  8
FRONTVIEW
 10
-0.13864
 20
1.100907
 30
0.0
 11
-0.121117
 21
0.913999
 31
0.0
  0
LINE
  8
FRONTVIEW
 10
-0.164747
 20
0.856948
 30
0.0
 11
-0.13864
 21
1.100907
 31
0.0
  0
LINE
  8
FRONTVIEW
 10
-0.18227
 20
1.038534
 30
0.0
 11
-0.164747
 21
0.856948
 31
0.0
  0
LINE
  8
FRONTVIEW
 10
-0.228224
 20
0.817352
 30
0.0
 11
-0.18227
 21
1.038534
 31
0.0
  0
ARC
  8
FRONTVIEW
 10
0.747208
 20
1.314954
 30
0.0
 40
0.698796
 50
173.273027
 51
204.21668
  0
ARC
  8
FRONTVIEW
 10
0.327949
 20
1.106874
 30
0.0
 40
0.231763
 50
118.145776
 51
199.813636
  0
LINE
  8
FRONTVIEW
 10
-0.544897
 20
-0.640871
 30
0.0
 11
-0.547221
 21
-0.591483
 31
0.0
  0
LINE
  8
FRONTVIEW
 10
-0.494293
 20
-0.706863
 30
0.0
 11
-0.522009
 21
-0.635549
 31
0.0
  0
LINE
  8
FRONTVIEW
 10
-0.567963
 20
-0.41458
 30
0.0
 11
-1.010723
 21
-0.52814
 31
0.0
  0
LINE
  8
FRONTVIEW
 10
-0.247357
 20
0.551466
 30
0.0
 11
-0.228224
 21
0.817352
 31
0.0
  0
LINE
  8
FRONTVIEW
 10
-0.272748
 20
0.756681
 30
0.0
 11
-0.247357
 21
0.551466
 31
0.0
  0
LINE
  8
FRONTVIEW
 10
-0.304755
 20
0.513573
 30
0.0
 11
-0.272748
 21
0.756681
 31
0.0
  0
LINE
  8
FRONTVIEW
 10
-0.323887
 20
0.635127
 30
0.0
 11
-0.304755
 21
0.513573
 31
0.0
  0
LINE
  8
FRONTVIEW
 10
-0.349279
 20
0.513573
 30
0.0
 11
-0.323887
 21
0.635127
 31
0.0
  0
ARC
  8
FRONTVIEW
 10
0.448162
 20
1.17263
 30
0.0
 40
0.26814
 50
148.875368
 51
216.031052
  0
ARC
  8
FRONTVIEW
 10
-1.114034
 20
-0.032182
 30
0.0
 40
0.939521
 50
342.873466
 51
35.512937
  0
ARC
  8
FRONTVIEW
 10
-0.656374
 20
0.534291
 30
0.0
 40
1.009448
 50
329.36484
 51
28.431967
  0
LINE
  8
FRONTVIEW
 10
-0.381285
 20
-0.340498
 30
0.0
 11
-0.567963
 21
-0.41458
 31
0.0
  0
LINE
  8
FRONTVIEW
 10
-0.266489
 20
-0.311972
 30
0.0
 11
-0.381285
 21
-0.340498
 31
0.0
  0
ARC
  8
FRONTVIEW
 10
-0.238897
 20
-0.349707
 30
0.0
 40
0.046747
 50
295.777135
 51
126.174908
  0
LINE
  8
FRONTVIEW
 10
-0.448339
 20
-0.448641
 30
0.0
 11
-0.218568
 21
-0.391802
 31
0.0
  0
ARC
  8
FRONTVIEW
 10
-0.276944
 20
0.018716
 30
0.0
 40
0.497794
 50
249.86037
 51
306.718536
  0
LINE
  8
FRONTVIEW
 10
-0.017586
 20
-0.124
 30
0.0
 11
0.020679
 21
-0.380306
 31
0.0
  0
LINE
  8
FRONTVIEW
 10
0.025507
 20
-0.101222
 30
0.0
 11
-0.017586
 21
-0.124
 31
0.0
  0
LINE
  8
FRONTVIEW
 10
0.063772
 20
-0.118252
 30
0.0
 11
0.025507
 21
-0.101222
 31
0.0
  0
LINE
  8
FRONTVIEW
 10
0.09721
 20
-0.192334
 30
0.0
 11
0.135475
 21
-0.454388
 31
0.0
  0
LINE
  8
FRONTVIEW
 10
0.063772
 20
-0.112717
 30
0.0
 11
0.09721
 21
-0.192334
 31
0.0
  0
LINE
  8
FRONTVIEW
 10
0.082905
 20
-0.089939
 30
0.0
 11
0.063772
 21
-0.112717
 31
0.0
  0
LINE
  8
FRONTVIEW
 10
0.116343
 20
-0.078444
 30
0.0
 11
0.082905
 21
-0.089939
 31
0.0
  0
LINE
  8
FRONTVIEW
 10
0.145131
 20
-0.10697
 30
0.0
 11
0.116343
 21
-0.078444
 31
0.0
  0
LINE
  8
FRONTVIEW
 10
0.202529
 20
-0.386054
 30
0.0
 11
0.145131
 21
-0.10697
 31
0.0
  0
LINE
  8
FRONTVIEW
 10
0.192873
 20
-0.055666
 30
0.0
 11
0.274232
 21
-0.015857
 31
0.0
  0
LINE
  8
FRONTVIEW
 10
0.178568
 20
-0.14103
 30
0.0
 11
0.192873
 21
-0.055666
 31
0.0
  0
LINE
  8
FRONTVIEW
 10
0.202529
 20
-0.386054
 30
0.0
 11
0.178568
 21
-0.14103
 31
0.0
  0
LINE
  8
FRONTVIEW
 10
0.317325
 20
-0.272164
 30
0.0
 11
0.274232
 21
-0.015857
 31
0.0
  0
ARC
  8
FRONTVIEW
 10
0.355105
 20
-0.106531
 30
0.0
 40
0.070217
 50
319.077108
 51
161.449207
  0
ARC
  8
FRONTVIEW
 10
-0.58842
 20
0.45745
 30
0.0
 40
1.168436
 50
274.559046
 51
328.530496
  0
LINE
  8
FRONTVIEW
 10
-0.609104
 20
-0.761414
 30
0.0
 11
-0.495545
 21
-0.707289
 31
0.0
  0
TEXT
  8
FRONTVIEW
 10
2.421629
 20
-0.39416
 30
0.0
 40
1.022072
  1
Brooks
  7
ROMANT
  0
TEXT
  8
FRONTVIEW
 10
-8.487534
 20
-0.403934
 30
0.0
 40
1.022072
  1
Cleaver
  7
ROMANT
  0
ENDBLK
  8
0
  6
CONTINUOUS
 62
     4
  0
ENDSEC
  0
SECTION
  2
ENTITIES
  0
TEXT
  8
FRONTVIEW
 10
48.313968
 20
38.597486
 30
0.0
 40
5.0
  1
FRONT VIEW
  7
ROMANS
 72
     4
 11
71.052063
 21
41.097486
 31
0.0
  0
TEXT
  8
RIGHTSIDE
 10
345.905051
 20
38.757491
 30
0.0
 40
5.0
  1
RIGHT SIDE
  7
ROMANS
 72
     4
 11
367.214575
 21
41.257491
 31
0.0
  0
POLYLINE
  8
CAPTIONS
 66
     1
 10
0.0
 20
0.0
 30
0.0
 70
     1
 40
0.5
 41
0.5
  0
VERTEX
  8
CAPTIONS
 10
544.290475
 20
155.841911
 30
0.0
 42
1.0
  0
VERTEX
  8
CAPTIONS
 10
544.790475
 20
155.841911
 30
0.0
 42
1.0
  0
SEQEND
  8
CAPTIONS
  0
CIRCLE
  8
CAPTIONS
 10
544.540475
 20
155.841911
 30
0.0
 40
2.799891
  0
TEXT
  8
CAPTIONS
 10
549.457578
 20
138.578069
 30
0.0
 40
4.597
  1
jurisdictional requirements.
  7
ROMANS
  0
TEXT
  8
CAPTIONS
 10
549.457578
 20
146.020831
 30
0.0
 40
4.597
  1
clearance consult local
  7
ROMANS
  0
TEXT
  8
CAPTIONS
 10
549.457578
 20
153.463592
 30
0.0
 40
4.597
  1
For minimum aisle 
  7
ROMANS
  0
TEXT
  8
CAPTIONS
 10
342.737707
 20
383.473336
 30
0.0
 40
5.0
  1
CB 200 HP 
  7
ROMAND
  0
ARC
  8
CAPTIONS
 10
368.775968
 20
6.167753
 30
0.0
 40
13.097472
 50
73.493764
 51
74.4082
  0
ARC
  8
CAPTIONS
 10
369.703956
 20
9.299442
 30
0.0
 40
9.831184
 50
54.419527
 51
73.493591
  0
ARC
  8
CAPTIONS
 10
371.123011
 20
11.282981
 30
0.0
 40
7.392302
 50
30.070114
 51
54.419544
  0
ARC
  8
CAPTIONS
 10
373.292226
 20
12.538916
 30
0.0
 40
4.885738
 50
359.999979
 51
30.070151
  0
ARC
  8
CAPTIONS
 10
374.295438
 20
12.205672
 30
0.0
 40
3.896801
 50
329.929866
 51
4.905749
  0
ARC
  8
CAPTIONS
 10
370.820616
 20
14.217532
 30
0.0
 40
7.912018
 50
305.580464
 51
329.929893
  0
ARC
  8
CAPTIONS
 10
369.703956
 20
15.778386
 30
0.0
 40
9.831184
 50
286.506409
 51
305.580473
  0
ARC
  8
CAPTIONS
 10
368.775981
 20
18.906541
 30
0.0
 40
13.097364
 50
270.000045
 51
286.506319
  0
ARC
  8
CAPTIONS
 10
366.428996
 20
13.794873
 30
0.0
 40
7.392338
 50
210.070176
 51
227.741303
  0
ARC
  8
CAPTIONS
 10
364.259753
 20
12.538912
 30
0.0
 40
4.885736
 50
179.999984
 51
210.070156
  0
ARC
  8
CAPTIONS
 10
364.259755
 20
12.538916
 30
0.0
 40
4.885738
 50
149.929849
 51
180.000021
  0
ARC
  8
CAPTIONS
 10
366.42897
 20
11.282979
 30
0.0
 40
7.392304
 50
125.580444
 51
149.929874
  0
ARC
  8
CAPTIONS
 10
367.848025
 20
9.299442
 30
0.0
 40
9.831184
 50
106.506409
 51
125.580473
  0
ARC
  8
CAPTIONS
 10
368.776009
 20
6.167832
 30
0.0
 40
13.097395
 50
94.417361
 51
106.506318
  0
ARC
  8
CAPTIONS
 10
368.776
 20
18.906541
 30
0.0
 40
13.097364
 50
253.493681
 51
269.999955
  0
ARC
  8
CAPTIONS
 10
367.847982
 20
15.77487
 30
0.0
 40
9.831085
 50
251.627947
 51
253.493685
  0
ARC
  8
CAPTIONS
 10
369.408989
 20
23.545419
 30
0.0
 40
0.723632
 50
26.058138
 51
90.000027
  0
ARC
  8
CAPTIONS
 10
358.78334
 20
18.349559
 30
0.0
 40
12.551623
 50
19.796937
 51
26.058266
  0
ARC
  8
CAPTIONS
 10
401.615191
 20
13.97845
 30
0.0
 40
34.57041
 50
168.549831
 51
171.020329
  0
ARC
  8
CAPTIONS
 10
380.034832
 20
18.349486
 30
0.0
 40
12.551829
 50
153.941824
 51
168.549851
  0
ARC
  8
CAPTIONS
 10
369.408988
 20
23.545418
 30
0.0
 40
0.723632
 50
89.999937
 51
153.941826
  0
ARC
  8
CAPTIONS
 10
341.676474
 20
10.243388
 30
0.0
 40
30.005881
 50
348.549808
 51
352.045725
  0
ARC
  8
CAPTIONS
 10
358.78315
 20
6.778475
 30
0.0
 40
12.551828
 50
333.941804
 51
348.54983
  0
ARC
  8
CAPTIONS
 10
369.408989
 20
1.582538
 30
0.0
 40
0.723632
 50
270.00003
 51
333.941919
  0
ARC
  8
CAPTIONS
 10
369.408989
 20
1.582539
 30
0.0
 40
0.723632
 50
206.058117
 51
270.000006
  0
ARC
  8
CAPTIONS
 10
380.034829
 20
6.778471
 30
0.0
 40
12.551827
 50
191.450154
 51
206.058181
  0
ARC
  8
CAPTIONS
 10
397.143111
 20
10.243656
 30
0.0
 40
30.007509
 50
188.358819
 51
191.450083
  0
ARC
  8
CAPTIONS
 10
341.751439
 20
-30.314169
 30
0.0
 40
52.738673
 50
47.178359
 51
48.173695
  0
ARC
  8
CAPTIONS
 10
364.978029
 20
-5.250729
 30
0.0
 40
18.567771
 50
35.590662
 51
47.17836
  0
ARC
  8
CAPTIONS
 10
379.606051
 20
5.214874
 30
0.0
 40
0.579453
 50
325.888644
 51
35.590677
  0
ARC
  8
CAPTIONS
 10
390.938848
 20
50.243774
 30
0.0
 40
45.643056
 50
227.178319
 51
228.469064
  0
ARC
  8
CAPTIONS
 10
372.535251
 20
30.3848
 30
0.0
 40
18.567768
 50
215.590671
 51
227.178369
  0
ARC
  8
CAPTIONS
 10
357.907233
 20
19.91577
 30
0.0
 40
0.579453
 50
145.888644
 51
215.590677
  0
ARC
  8
CAPTIONS
 10
357.907234
 20
19.91577
 30
0.0
 40
0.579454
 50
76.186623
 51
145.888656
  0
ARC
  8
CAPTIONS
 10
353.612348
 20
2.447705
 30
0.0
 40
18.567765
 50
64.598944
 51
76.186642
  0
ARC
  8
CAPTIONS
 10
341.999104
 20
-22.008714
 30
0.0
 40
45.64144
 50
61.736217
 51
64.599024
  0
ARC
  8
CAPTIONS
 10
379.606051
 20
5.214874
 30
0.0
 40
0.579454
 50
256.186623
 51
325.888656
  0
ARC
  8
CAPTIONS
 10
383.900937
 20
22.682939
 30
0.0
 40
18.567765
 50
244.598944
 51
256.186642
  0
ARC
  8
CAPTIONS
 10
395.515072
 20
47.144535
 30
0.0
 40
45.643404
 50
241.807185
 51
244.598955
  0
ARC
  8
CAPTIONS
 10
357.979879
 20
5.178251
 30
0.0
 40
0.510671
 50
142.874757
 51
214.376124
  0
ARC
  8
CAPTIONS
 10
373.835968
 20
-6.821199
 30
0.0
 40
20.397466
 50
132.266064
 51
142.874701
  0
ARC
  8
CAPTIONS
 10
394.025258
 20
-29.035402
 30
0.0
 40
50.415431
 50
131.286278
 51
132.26603
  0
ARC
  8
CAPTIONS
 10
335.638615
 20
58.228002
 30
0.0
 40
58.293083
 50
296.485995
 51
298.153044
  0
ARC
  8
CAPTIONS
 10
352.539268
 20
24.306355
 30
0.0
 40
20.397466
 50
285.877352
 51
296.485989
  0
ARC
  8
CAPTIONS
 10
357.979879
 20
5.17825
 30
0.0
 40
0.51067
 50
214.375979
 51
285.877346
  0
ARC
  8
CAPTIONS
 10
398.62501
 20
-25.893361
 30
0.0
 40
50.419304
 50
116.486045
 51
119.066308
  0
ARC
  8
CAPTIONS
 10
385.235863
 20
0.977468
 30
0.0
 40
20.397468
 50
105.877365
 51
116.486002
  0
ARC
  8
CAPTIONS
 10
379.795248
 20
20.105573
 30
0.0
 40
0.510671
 50
34.376009
 51
105.877376
  0
ARC
  8
CAPTIONS
 10
379.795248
 20
20.105573
 30
0.0
 40
0.510671
 50
322.87467
 51
34.376037
  0
ARC
  8
CAPTIONS
 10
363.939158
 20
32.108448
 30
0.0
 40
20.397466
 50
312.266064
 51
322.874701
  0
ARC
  8
CAPTIONS
 10
343.745884
 20
54.327035
 30
0.0
 40
50.421355
 50
310.99866
 51
312.26603
  0
ARC
  8
CAPTIONS
 10
353.616518
 20
12.605549
 30
0.0
 40
0.556231
 50
107.770486
 51
179.999953
  0
ARC
  8
CAPTIONS
 10
360.897664
 20
-10.112786
 30
0.0
 40
24.41284
 50
97.562078
 51
107.770471
  0
ARC
  8
CAPTIONS
 10
365.640657
 20
-45.840428
 30
0.0
 40
60.453934
 50
95.609002
 51
97.562053
  0
ARC
  8
CAPTIONS
 10
366.885852
 20
80.431061
 30
0.0
 40
69.915761
 50
262.437931
 51
263.989935
  0
ARC
  8
CAPTIONS
 10
360.897664
 20
35.323884
 30
0.0
 40
24.41284
 50
252.229529
 51
262.437922
  0
ARC
  8
CAPTIONS
 10
353.616519
 20
12.60555
 30
0.0
 40
0.556232
 50
180.000001
 51
252.229468
  0
ARC
  8
CAPTIONS
 10
372.058968
 20
-45.840088
 30
0.0
 40
60.453592
 50
82.437943
 51
84.316515
  0
ARC
  8
CAPTIONS
 10
376.80192
 20
-10.112781
 30
0.0
 40
24.412836
 50
72.229526
 51
82.437919
  0
ARC
  8
CAPTIONS
 10
384.083065
 20
12.605549
 30
0.0
 40
0.556231
 50
0.000047
 51
72.229514
  0
ARC
  8
CAPTIONS
 10
384.083065
 20
12.60555
 30
0.0
 40
0.556232
 50
287.770532
 51
359.999999
  0
ARC
  8
CAPTIONS
 10
376.80192
 20
35.32388
 30
0.0
 40
24.412836
 50
277.562081
 51
287.770474
  0
ARC
  8
CAPTIONS
 10
372.05901
 20
71.050968
 30
0.0
 40
60.45337
 50
275.76689
 51
277.562045
  0
TEXT
  8
CAPTIONS
 10
257.853916
 20
396.930415
 30
0.0
 40
9.0
  1
Cleaver-Brooks Layout Guide
  7
ROMAND
  0
LINE
  8
CAPTIONS
 10
368.163148
 20
6.695798
 30
0.0
 11
367.958511
 21
5.843836
 31
0.0
  0
LINE
  8
CAPTIONS
 10
370.120548
 20
7.543712
 30
0.0
 11
369.782452
 21
5.787475
 31
0.0
  0
LINE
  8
CAPTIONS
 10
365.716397
 20
6.531384
 30
0.0
 11
365.654116
 21
6.187609
 31
0.0
  0
LINE
  8
CAPTIONS
 10
368.438963
 20
6.796377
 30
0.0
 11
365.716397
 21
6.53481
 31
0.0
  0
LINE
  8
CAPTIONS
 10
370.01378
 20
7.543712
 30
0.0
 11
368.438963
 21
6.796377
 31
0.0
  0
LINE
  8
CAPTIONS
 10
371.668342
 20
8.500301
 30
0.0
 11
370.01378
 21
7.543712
 31
0.0
  0
LINE
  8
CAPTIONS
 10
371.668342
 20
8.500301
 30
0.0
 11
376.330844
 21
8.500301
 31
0.0
  0
LINE
  8
CAPTIONS
 10
368.199762
 20
12.491445
 30
0.0
 11
359.390437
 21
12.491445
 31
0.0
  0
LINE
  8
CAPTIONS
 10
368.007729
 20
10.684829
 30
0.0
 11
359.73743
 21
10.684829
 31
0.0
  0
LINE
  8
CAPTIONS
 10
361.979543
 20
10.6601
 30
0.0
 11
362.548969
 21
8.642294
 31
0.0
  0
LINE
  8
CAPTIONS
 10
361.605858
 20
12.491071
 30
0.0
 11
361.979543
 21
10.6601
 31
0.0
  0
LINE
  8
CAPTIONS
 10
362.050722
 20
14.426668
 30
0.0
 11
361.605858
 21
12.491071
 31
0.0
  0
LINE
  8
CAPTIONS
 10
363.056113
 20
16.870454
 30
0.0
 11
362.050722
 21
14.426668
 31
0.0
  0
LINE
  8
CAPTIONS
 10
365.829705
 20
18.929535
 30
0.0
 11
363.056113
 21
16.870454
 31
0.0
  0
LINE
  8
CAPTIONS
 10
364.257245
 20
10.6601
 30
0.0
 11
364.7288
 21
9.225216
 31
0.0
  0
LINE
  8
CAPTIONS
 10
364.008122
 20
12.491071
 30
0.0
 11
364.257245
 21
10.6601
 31
0.0
  0
LINE
  8
CAPTIONS
 10
364.292834
 20
14.426668
 30
0.0
 11
364.008122
 21
12.491071
 31
0.0
  0
LINE
  8
CAPTIONS
 10
364.826671
 20
16.870454
 30
0.0
 11
364.292834
 21
14.426668
 31
0.0
  0
LINE
  8
CAPTIONS
 10
366.46991
 20
19.060608
 30
0.0
 11
364.826671
 21
16.870454
 31
0.0
  0
LINE
  8
CAPTIONS
 10
366.472666
 20
12.491071
 30
0.0
 11
366.784071
 21
9.920238
 31
0.0
  0
LINE
  8
CAPTIONS
 10
366.901798
 20
16.644668
 30
0.0
 11
366.472666
 21
12.491071
 31
0.0
  0
LINE
  8
CAPTIONS
 10
367.922933
 20
14.426671
 30
0.0
 11
359.77302
 21
14.426671
 31
0.0
  0
LINE
  8
CAPTIONS
 10
366.796535
 20
16.879288
 30
0.0
 11
361.599117
 21
16.879288
 31
0.0
  0
LINE
  8
CAPTIONS
 10
373.626073
 20
10.540526
 30
0.0
 11
377.807792
 21
10.540526
 31
0.0
  0
LINE
  8
CAPTIONS
 10
371.766543
 20
9.344789
 30
0.0
 11
373.626073
 21
10.540526
 31
0.0
  0
LINE
  8
CAPTIONS
 10
371.392858
 20
6.131249
 30
0.0
 11
371.766543
 21
9.344789
 31
0.0
  0
LINE
  8
CAPTIONS
 10
371.338621
 20
12.811007
 30
0.0
 11
373.87227
 21
12.467808
 31
0.0
  0
LINE
  8
CAPTIONS
 10
373.110031
 20
8.522721
 30
0.0
 11
372.522811
 21
6.347977
 31
0.0
  0
LINE
  8
CAPTIONS
 10
375.444044
 20
8.568404
 30
0.0
 11
374.996253
 21
7.491399
 31
0.0
  0
LINE
  8
CAPTIONS
 10
375.977881
 20
10.698308
 30
0.0
 11
375.444044
 21
8.568404
 31
0.0
  0
LINE
  8
CAPTIONS
 10
376.209209
 20
12.536753
 30
0.0
 11
375.977881
 21
10.698308
 31
0.0
  0
LINE
  8
CAPTIONS
 10
375.292884
 20
16.769478
 30
0.0
 11
375.022945
 21
17.520635
 31
0.0
  0
LINE
  8
CAPTIONS
 10
375.292884
 20
16.769478
 30
0.0
 11
375.912673
 21
14.374355
 31
0.0
  0
LINE
  8
CAPTIONS
 10
373.892992
 20
12.46865
 30
0.0
 11
378.163683
 21
12.46865
 31
0.0
  0
LINE
  8
CAPTIONS
 10
372.46053
 20
16.803194
 30
0.0
 11
375.983851
 21
16.803194
 31
0.0
  0
LINE
  8
CAPTIONS
 10
373.75174
 20
14.41949
 30
0.0
 11
373.87227
 21
12.467808
 31
0.0
  0
LINE
  8
CAPTIONS
 10
373.131953
 20
16.814613
 30
0.0
 11
373.75174
 21
14.41949
 31
0.0
  0
LINE
  8
CAPTIONS
 10
373.643868
 20
10.652626
 30
0.0
 11
373.110031
 21
8.522721
 31
0.0
  0
LINE
  8
CAPTIONS
 10
373.875197
 20
12.491071
 30
0.0
 11
373.643868
 21
10.652626
 31
0.0
  0
LINE
  8
CAPTIONS
 10
375.912673
 20
14.374355
 30
0.0
 11
376.206283
 21
12.513491
 31
0.0
  0
LINE
  8
CAPTIONS
 10
373.136724
 20
16.803194
 30
0.0
 11
372.309277
 21
18.783631
 31
0.0
  0
LINE
  8
CAPTIONS
 10
377.801249
 20
14.420177
 30
0.0
 11
372.015667
 21
14.419195
 31
0.0
  0
LINE
  8
CAPTIONS
 10
368.633783
 20
20.066821
 30
0.0
 11
368.930451
 21
17.601764
 31
0.0
  0
LINE
  8
CAPTIONS
 10
370.53536
 20
20.960936
 30
0.0
 11
370.797202
 21
19.308223
 31
0.0
  0
LINE
  8
CAPTIONS
 10
369.842383
 20
18.945432
 30
0.0
 11
369.668574
 21
16.46502
 31
0.0
  0
LINE
  8
CAPTIONS
 10
370.059079
 20
17.343779
 30
0.0
 11
369.842383
 21
18.945432
 31
0.0
  0
LINE
  8
CAPTIONS
 10
370.101967
 20
19.308223
 30
0.0
 11
370.059079
 21
17.343779
 31
0.0
  0
LINE
  8
CAPTIONS
 10
370.361551
 20
18.12042
 30
0.0
 11
370.101967
 21
19.308223
 31
0.0
  0
ARC
  8
CAPTIONS
 10
375.283181
 20
19.309437
 30
0.0
 40
5.063221
 50
160.56057
 51
193.581845
  0
LINE
  8
CAPTIONS
 10
369.765636
 20
19.688482
 30
0.0
 11
370.048599
 21
23.98496
 31
0.0
  0
LINE
  8
CAPTIONS
 10
369.553776
 20
23.732734
 30
0.0
 11
369.765636
 21
19.688482
 31
0.0
  0
LINE
  8
CAPTIONS
 10
369.340465
 20
20.825226
 30
0.0
 11
369.553776
 21
23.732734
 31
0.0
  0
LINE
  8
CAPTIONS
 10
368.739713
 20
22.848216
 30
0.0
 11
369.340465
 21
20.825226
 31
0.0
  0
LINE
  8
CAPTIONS
 10
368.633783
 20
20.066821
 30
0.0
 11
368.739713
 21
22.848216
 31
0.0
  0
LINE
  8
CAPTIONS
 10
368.491576
 20
21.583631
 30
0.0
 11
368.633783
 21
20.066821
 31
0.0
  0
LINE
  8
CAPTIONS
 10
368.279716
 20
19.603831
 30
0.0
 11
368.491576
 21
21.583631
 31
0.0
  0
LINE
  8
CAPTIONS
 10
368.137509
 20
21.077452
 30
0.0
 11
368.279716
 21
19.603831
 31
0.0
  0
LINE
  8
CAPTIONS
 10
367.764579
 20
19.282502
 30
0.0
 11
368.137509
 21
21.077452
 31
0.0
  0
ARC
  8
CAPTIONS
 10
375.680485
 20
23.320677
 30
0.0
 40
5.670927
 50
173.273027
 51
204.21668
  0
ARC
  8
CAPTIONS
 10
372.278077
 20
21.632057
 30
0.0
 40
1.880825
 50
118.145776
 51
199.813636
  0
LINE
  8
CAPTIONS
 10
365.194693
 20
7.448615
 30
0.0
 11
365.175829
 21
7.849412
 31
0.0
  0
LINE
  8
CAPTIONS
 10
365.605352
 20
6.913068
 30
0.0
 11
365.380433
 21
7.491805
 31
0.0
  0
LINE
  8
CAPTIONS
 10
365.007502
 20
9.285028
 30
0.0
 11
361.491503
 21
8.383233
 31
0.0
  0
LINE
  8
CAPTIONS
 10
367.609312
 20
17.124761
 30
0.0
 11
367.764579
 21
19.282502
 31
0.0
  0
LINE
  8
CAPTIONS
 10
367.403257
 20
18.790143
 30
0.0
 11
367.609312
 21
17.124761
 31
0.0
  0
LINE
  8
CAPTIONS
 10
367.14351
 20
16.817253
 30
0.0
 11
367.403257
 21
18.790143
 31
0.0
  0
LINE
  8
CAPTIONS
 10
366.988244
 20
17.803698
 30
0.0
 11
367.14351
 21
16.817253
 31
0.0
  0
LINE
  8
CAPTIONS
 10
366.782188
 20
16.817253
 30
0.0
 11
366.988244
 21
17.803698
 31
0.0
  0
ARC
  8
CAPTIONS
 10
373.253638
 20
22.165683
 30
0.0
 40
2.176029
 50
148.875368
 51
216.031052
  0
ARC
  8
CAPTIONS
 10
360.575984
 20
12.388296
 30
0.0
 40
7.624476
 50
344.447646
 51
35.512937
  0
ARC
  8
CAPTIONS
 10
364.29002
 20
16.985378
 30
0.0
 40
8.191957
 50
329.36484
 51
28.431967
  0
LINE
  8
CAPTIONS
 10
366.522443
 20
9.886223
 30
0.0
 11
365.007502
 21
9.285028
 31
0.0
  0
LINE
  8
CAPTIONS
 10
367.454044
 20
10.117718
 30
0.0
 11
366.522443
 21
9.886223
 31
0.0
  0
ARC
  8
CAPTIONS
 10
367.677964
 20
9.81149
 30
0.0
 40
0.379362
 50
295.777135
 51
126.174908
  0
LINE
  8
CAPTIONS
 10
365.978283
 20
9.008615
 30
0.0
 11
367.842937
 21
9.469878
 31
0.0
  0
ARC
  8
CAPTIONS
 10
367.369202
 20
12.80135
 30
0.0
 40
4.039739
 50
249.86037
 51
306.718536
  0
LINE
  8
CAPTIONS
 10
369.473966
 20
11.643166
 30
0.0
 11
369.7845
 21
9.563167
 31
0.0
  0
LINE
  8
CAPTIONS
 10
369.82368
 20
11.828017
 30
0.0
 11
369.473966
 21
11.643166
 31
0.0
  0
LINE
  8
CAPTIONS
 10
370.134213
 20
11.689811
 30
0.0
 11
369.82368
 21
11.828017
 31
0.0
  0
LINE
  8
CAPTIONS
 10
370.405567
 20
11.088615
 30
0.0
 11
370.716102
 21
8.961971
 31
0.0
  0
LINE
  8
CAPTIONS
 10
370.134213
 20
11.734728
 30
0.0
 11
370.405567
 21
11.088615
 31
0.0
  0
LINE
  8
CAPTIONS
 10
370.28948
 20
11.919579
 30
0.0
 11
370.134213
 21
11.734728
 31
0.0
  0
LINE
  8
CAPTIONS
 10
370.560835
 20
12.012867
 30
0.0
 11
370.28948
 21
11.919579
 31
0.0
  0
LINE
  8
CAPTIONS
 10
370.794461
 20
11.781373
 30
0.0
 11
370.560835
 21
12.012867
 31
0.0
  0
LINE
  8
CAPTIONS
 10
371.260261
 20
9.516522
 30
0.0
 11
370.794461
 21
11.781373
 31
0.0
  0
LINE
  8
CAPTIONS
 10
371.181903
 20
12.197718
 30
0.0
 11
371.84215
 21
12.520774
 31
0.0
  0
LINE
  8
CAPTIONS
 10
371.065815
 20
11.50496
 30
0.0
 11
371.181903
 21
12.197718
 31
0.0
  0
LINE
  8
CAPTIONS
 10
371.260261
 20
9.516522
 30
0.0
 11
371.065815
 21
11.50496
 31
0.0
  0
LINE
  8
CAPTIONS
 10
372.191863
 20
10.440774
 30
0.0
 11
371.84215
 21
12.520774
 31
0.0
  0
ARC
  8
CAPTIONS
 10
372.49846
 20
11.784934
 30
0.0
 40
0.56983
 50
319.077108
 51
161.449207
  0
ARC
  8
CAPTIONS
 10
364.841489
 20
16.361797
 30
0.0
 40
9.482187
 50
274.559046
 51
328.530496
  0
LINE
  8
CAPTIONS
 10
364.757914
 20
6.510543
 30
0.0
 11
365.595194
 21
6.909612
 31
0.0
  0
TEXT
  8
CAPTIONS
 10
301.531465
 20
5.610623
 30
0.0
 40
2.7648
  1
DIV., AQUA-CHEM INC.
  7
ROMANS
  0
TEXT
  8
CAPTIONS
 10
388.457022
 20
5.531303
 30
0.0
 40
2.7648
  1
MILWAUKEE,WISCONSIN
  7
ROMANS
  0
TEXT
  8
CAPTIONS
 10
390.794239
 20
11.494644
 30
0.0
 40
8.2944
  1
Brooks
  7
ROMANT
  0
TEXT
  8
CAPTIONS
 10
302.263321
 20
11.415324
 30
0.0
 40
8.2944
  1
Cleaver
  7
ROMANT
  0
TEXT
  8
CAPTIONS
 10
588.760617
 20
348.354273
 30
0.0
 40
5.0
  1
REAR TUBE CLEARANCE
  7
ROMAND
  0
TEXT
  8
CAPTIONS
 10
258.76517
 20
318.842861
 30
0.0
 40
5.0
  1
FRONT DOOR SWING
  7
ROMAND
  0
TEXT
  8
CAPTIONS
 10
467.052127
 20
332.074733
 30
0.0
 40
5.0
  1
REAR DOOR SWING
  7
ROMAND
  0
TEXT
  8
CAPTIONS
 10
118.852727
 20
331.888415
 30
0.0
 40
5.0
  1
FRONT TUBE CLEARANCE
  7
ROMAND
 72
     4
 11
166.352727
 21
334.388415
 31
0.0
  0
SOLID
  8
CAPTIONS
  6
CONTINUOUS
 10
140.311139
 20
289.270279
 30
0.0
 11
138.983437
 21
288.262815
 31
0.0
 12
142.669679
 22
284.783439
 32
0.0
 13
142.669679
 23
284.783439
 33
0.0
  0
LINE
  8
CAPTIONS
  6
CONTINUOUS
 10
142.669679
 20
284.783439
 30
0.0
 11
105.173774
 21
334.198036
 31
0.0
  0
LINE
  8
CAPTIONS
  6
CONTINUOUS
 10
105.173774
 20
334.198036
 30
0.0
 11
112.505668
 21
334.198036
 31
0.0
  0
SOLID
  8
CAPTIONS
  6
CONTINUOUS
 10
268.307757
 20
296.446813
 30
0.0
 11
266.980054
 21
295.439349
 31
0.0
 12
270.666296
 22
291.959973
 32
0.0
 13
270.666296
 23
291.959973
 33
0.0
  0
LINE
  8
CAPTIONS
  6
CONTINUOUS
 10
270.666296
 20
291.959973
 30
0.0
 11
248.693784
 21
320.916811
 31
0.0
  0
LINE
  8
CAPTIONS
  6
CONTINUOUS
 10
248.693784
 20
320.916811
 30
0.0
 11
255.603865
 21
320.916811
 31
0.0
  0
LINE
  8
CAPTIONS
  6
CONTINUOUS
 10
515.69207
 20
288.110178
 30
0.0
 11
551.205429
 21
334.912043
 31
0.0
  0
SOLID
  8
CAPTIONS
  6
CONTINUOUS
 10
515.028219
 20
288.61391
 30
0.0
 11
516.355922
 21
287.606446
 31
0.0
 12
512.669679
 22
284.127069
 32
0.0
 13
512.669679
 23
284.127069
 33
0.0
  0
LINE
  8
CAPTIONS
  6
CONTINUOUS
 10
551.205429
 20
334.912043
 30
0.0
 11
543.61162
 21
334.912043
 31
0.0
  0
LINE
  8
CAPTIONS
  6
CONTINUOUS
 10
653.69207
 20
289.668465
 30
0.0
 11
700.27398
 21
351.057203
 31
0.0
  0
SOLID
  8
CAPTIONS
  6
CONTINUOUS
 10
653.028219
 20
290.172197
 30
0.0
 11
654.355922
 21
289.164733
 31
0.0
 12
650.669679
 22
285.685357
 32
0.0
 13
650.669679
 23
285.685357
 33
0.0
  0
LINE
  8
CAPTIONS
  6
CONTINUOUS
 10
700.27398
 20
351.057203
 30
0.0
 11
683.744365
 21
351.057203
 31
0.0
  0
INSERT
  8
0
 66
     1
  2
GETDAT
 10
0.0
 20
-269.951032
 30
0.0
  0
ATTRIB
  8
0
 10
0.0
 20
-269.951032
 30
0.0
 40
1.0
  1
96" DIM.DIAG.PROTOTYPE
  2
DWGNAM
 70
     1
  0
ATTRIB
  8
0
 10
0.0
 20
-269.951032
 30
0.0
 40
1.0
  1
B
  2
DWGSIZ
 70
     1
  0
ATTRIB
  8
0
 10
0.0
 20
-269.951032
 30
0.0
 40
1.0
  1
00
  2
DWGREV
 70
     1
  0
ATTRIB
  8
0
 10
0.0
 20
-269.951032
 30
0.0
 40
1.0
  1
01
  2
DWGSHT
 70
     1
  0
ATTRIB
  8
0
 10
0.0
 20
-269.951032
 30
0.0
 40
1.0
  1
01
  2
DWGOF
 70
     1
  0
ATTRIB
  8
0
 10
0.0
 20
-269.951032
 30
0.0
 40
1.0
  1
 
  2
DWGDIST
 70
     1
  0
ATTRIB
  8
0
 10
0.0
 20
-269.951032
 30
0.0
 40
1.0
  1
01
  2
DWGQUAN
 70
     1
  0
ATTRIB
  8
0
 10
0.0
 20
-269.951032
 30
0.0
 40
1.0
  1
96" DIM. DIAG. PROTOTYPE 
  2
DWGDESC
 70
     1
  0
ATTRIB
  8
0
 10
0.0
 20
-269.951032
 30
0.0
 40
1.0
  1
D. KLEIST 
  2
DRWN
 70
     1
  0
ATTRIB
  8
0
 10
0.0
 20
-269.951032
 30
0.0
 40
1.0
  1
10/14/92
  2
DATE
 70
     1
  0
ATTRIB
  8
0
 10
0.0
 20
-269.951032
 30
0.0
 40
1.0
  1
01 
  2
FILE
 70
     1
  0
SEQEND
  8
0
  0
TEXT
  8
CAPTIONS
 10
334.540455
 20
374.548392
 30
0.0
 40
5.0
  1
SCALE - 1"=1"
  7
ROMAND
  0
LINE
  8
RIGHTSIDE
  6
CENTER
 10
505.86318
 20
99.310041
 30
0.0
 11
285.786047
 21
99.310041
 31
0.0
  0
LINE
  8
PLANVIEW
 10
299.669679
 20
264.060898
 30
0.0
 11
299.669679
 21
236.037911
 31
0.0
  0
LINE
  8
PLANVIEW
 10
300.669679
 20
262.419826
 30
0.0
 11
300.669679
 21
236.419877
 31
0.0
  0
LINE
  8
RIGHTSIDE
 10
481.919679
 20
129.296748
 30
0.0
 11
492.669679
 21
129.296748
 31
0.0
  0
CIRCLE
  8
PLANVIEW
 10
308.669641
 20
268.419877
 30
0.0
 40
10.0
  0
CIRCLE
  8
PLANVIEW
 10
308.669641
 20
268.419877
 30
0.0
 40
8.0
  0
LINE
  8
RIGHTSIDE
 10
466.569716
 20
82.567448
 30
0.0
 11
471.669716
 21
82.567448
 31
0.0
  0
LINE
  8
FRONTVIEW
 10
54.540997
 20
71.661281
 30
0.0
 11
50.306159
 21
65.310041
 31
0.0
  0
LINE
  8
FRONTVIEW
 10
44.06879
 20
82.652616
 30
0.0
 11
46.306159
 21
65.310041
 31
0.0
  0
LINE
  8
RIGHTSIDE
 10
301.169679
 20
53.310041
 30
0.0
 11
480.169679
 21
53.310041
 31
0.0
  0
LINE
  8
PLANVIEW
 10
481.669679
 20
255.298359
 30
0.0
 11
481.669679
 21
235.419877
 31
0.0
  0
LINE
  8
PLANVIEW
 10
479.669679
 20
252.898993
 30
0.0
 11
479.669679
 21
235.419877
 31
0.0
  0
LINE
  8
PLANVIEW
 10
480.669679
 20
253.466742
 30
0.0
 11
480.669679
 21
235.419877
 31
0.0
  0
LINE
  8
RIGHTSIDE
 10
300.669679
 20
66.310041
 30
0.0
 11
300.669679
 21
87.974302
 31
0.0
  0
LINE
  8
RIGHTSIDE
 10
301.669679
 20
90.594647
 30
0.0
 11
301.669679
 21
108.025436
 31
0.0
  0
LINE
  8
RIGHTSIDE
 10
303.58453
 20
87.974302
 30
0.0
 11
303.58453
 21
90.594647
 31
0.0
  0
LINE
  8
RIGHTSIDE
 10
299.669679
 20
87.974302
 30
0.0
 11
303.58453
 21
87.974302
 31
0.0
  0
LINE
  8
RIGHTSIDE
 10
299.669679
 20
90.594647
 30
0.0
 11
303.58453
 21
90.594647
 31
0.0
  0
LINE
  8
RIGHTSIDE
 10
303.58453
 20
110.645781
 30
0.0
 11
303.58453
 21
108.025436
 31
0.0
  0
LINE
  8
RIGHTSIDE
 10
299.669679
 20
108.025436
 30
0.0
 11
303.58453
 21
108.025436
 31
0.0
  0
LINE
  8
RIGHTSIDE
 10
299.669679
 20
110.645781
 30
0.0
 11
303.58453
 21
110.645781
 31
0.0
  0
LINE
  8
RIGHTSIDE
  6
DASHED
 10
650.669679
 20
129.310041
 30
0.0
 11
650.669679
 21
69.310041
 31
0.0
  0
LINE
  8
RIGHTSIDE
 10
474.85356
 20
132.310041
 30
0.0
 11
332.430561
 21
132.310041
 31
0.0
  0
LINE
  8
PLANVIEW
 10
472.273891
 20
244.026393
 30
0.0
 11
491.951057
 21
267.632752
 31
0.0
  0
LINE
  8
PLANVIEW
 10
468.003587
 20
248.220927
 30
0.0
 11
489.847258
 21
269.698571
 31
0.0
  0
ARC
  8
PLANVIEW
 10
470.138739
 20
246.12366
 30
0.0
 40
2.992892
 50
133.51898
 51
315.512845
  0
ARC
  8
PLANVIEW
 10
470.138739
 20
246.12366
 30
0.0
 40
4.384266
 50
87.558397
 51
7.314143
  0
ARC
  8
PLANVIEW
  6
DASHED
 10
480.669679
 20
232.519877
 30
0.0
 40
70.30159
 50
62.923372
 51
78.539865
  0
LINE
  8
PLANVIEW
  6
DASHED
 10
233.669679
 20
234.919877
 30
0.0
 11
299.169679
 21
234.919877
 31
0.0
  0
LINE
  8
PLANVIEW
  6
DASHED
 10
233.669679
 20
233.919877
 30
0.0
 11
299.551645
 21
233.919877
 31
0.0
  0
LINE
  8
PLANVIEW
  6
DASHED
 10
295.669679
 20
234.919877
 30
0.0
 11
299.169679
 21
234.919877
 31
0.0
  0
LINE
  8
PLANVIEW
  6
DASHED
 10
235.669679
 20
228.419877
 30
0.0
 11
235.669679
 21
233.919877
 31
0.0
  0
LINE
  8
PLANVIEW
  6
DASHED
 10
294.669679
 20
225.419877
 30
0.0
 11
238.669679
 21
225.419877
 31
0.0
  0
LINE
  8
RIGHTSIDE
 10
314.919679
 20
82.669166
 30
0.0
 11
309.919679
 21
82.669166
 31
0.0
  0
ARC
  8
RIGHTSIDE
 10
492.669679
 20
126.296748
 30
0.0
 40
3.0
 50
0.0
 51
90.0
  0
ARC
  8
RIGHTSIDE
 10
492.669679
 20
71.310041
 30
0.0
 40
3.0
 50
270.0
 51
0.0
  0
LINE
  8
RIGHTSIDE
 10
480.919679
 20
128.664032
 30
0.0
 11
480.919679
 21
76.156083
 31
0.0
  0
ARC
  8
RIGHTSIDE
 10
308.669641
 20
156.820337
 30
0.0
 40
25.782835
 50
254.246636
 51
288.076344
  0
LINE
  8
FRONTVIEW
  6
CENTER
 10
72.556159
 20
57.339957
 30
0.0
 11
72.556159
 21
143.942308
 31
0.0
  0
LINE
  8
FRONTVIEW
  6
CENTER
 10
37.726339
 20
99.310041
 30
0.0
 11
109.314326
 21
99.310041
 31
0.0
  0
ARC
  8
PLANVIEW
  6
DASHED
 10
294.669679
 20
228.419877
 30
0.0
 40
3.0
 50
270.0
 51
0.0
  0
LINE
  8
RIGHTSIDE
 10
471.669716
 20
66.310041
 30
0.0
 11
481.919679
 21
66.310041
 31
0.0
  0
LINE
  8
RIGHTSIDE
 10
466.569716
 20
65.310041
 30
0.0
 11
466.569716
 21
82.567448
 31
0.0
  0
LINE
  8
RIGHTSIDE
 10
471.669716
 20
65.310041
 30
0.0
 11
471.669716
 21
82.567448
 31
0.0
  0
LINE
  8
RIGHTSIDE
 10
314.919679
 20
66.310041
 30
0.0
 11
466.569716
 21
66.310041
 31
0.0
  0
LINE
  8
RIGHTSIDE
 10
480.169679
 20
65.310041
 30
0.0
 11
301.169679
 21
65.310041
 31
0.0
  0
LINE
  8
PLANVIEW
 10
301.669679
 20
275.561343
 30
0.0
 11
301.669679
 21
301.044864
 31
0.0
  0
LINE
  8
FRONTVIEW
 10
46.306159
 20
53.310041
 30
0.0
 11
46.306159
 21
65.310041
 31
0.0
  0
LINE
  8
FRONTVIEW
 10
46.306159
 20
53.310041
 30
0.0
 11
50.306159
 21
53.310041
 31
0.0
  0
LINE
  8
FRONTVIEW
 10
46.306159
 20
56.310041
 30
0.0
 11
46.306159
 21
62.500441
 31
0.0
  0
LINE
  8
FRONTVIEW
 10
50.306159
 20
53.310041
 30
0.0
 11
50.306159
 21
65.310041
 31
0.0
  0
LINE
  8
PLANVIEW
  6
DASHED
 10
297.669679
 20
228.419877
 30
0.0
 11
297.669679
 21
233.919877
 31
0.0
  0
CIRCLE
  8
PLANVIEW
 10
300.669679
 20
234.919877
 30
0.0
 40
1.5
  0
LINE
  8
PLANVIEW
 10
300.669679
 20
239.919877
 30
0.0
 11
300.669679
 21
236.419877
 31
0.0
  0
LINE
  8
PLANVIEW
 10
301.669679
 20
236.037911
 30
0.0
 11
301.669679
 21
261.278411
 31
0.0
  0
LINE
  8
PLANVIEW
 10
301.669679
 20
298.919877
 30
0.0
 11
301.669679
 21
301.419877
 31
0.0
  0
LINE
  8
PLANVIEW
  6
DASHED
 10
142.669679
 20
298.419877
 30
0.0
 11
142.669679
 21
238.419877
 31
0.0
  0
LINE
  8
PLANVIEW
 10
299.669679
 20
301.419877
 30
0.0
 11
299.669679
 21
272.778855
 31
0.0
  0
LINE
  8
PLANVIEW
 10
300.669679
 20
301.419877
 30
0.0
 11
300.669679
 21
274.419928
 31
0.0
  0
LINE
  8
PLANVIEW
 10
302.083893
 20
235.419877
 30
0.0
 11
330.32273
 21
235.419877
 31
0.0
  0
LINE
  8
PLANVIEW
  6
DASHED
 10
650.669679
 20
298.419877
 30
0.0
 11
650.669679
 21
238.419877
 31
0.0
  0
LINE
  8
RIGHTSIDE
 10
301.169679
 20
65.310041
 30
0.0
 11
301.169679
 21
53.310041
 31
0.0
  0
LINE
  8
RIGHTSIDE
 10
481.919679
 20
129.339848
 30
0.0
 11
481.919679
 21
66.310041
 31
0.0
  0
LINE
  8
RIGHTSIDE
 10
480.919679
 20
76.156083
 30
0.0
 11
480.919679
 21
66.310041
 31
0.0
  0
LINE
  8
RIGHTSIDE
 10
479.919679
 20
127.838284
 30
0.0
 11
479.919679
 21
66.310041
 31
0.0
  0
LINE
  8
RIGHTSIDE
 10
299.669679
 20
66.310041
 30
0.0
 11
309.919679
 21
66.310041
 31
0.0
  0
LINE
  8
RIGHTSIDE
 10
309.919679
 20
82.678803
 30
0.0
 11
309.919679
 21
65.310041
 31
0.0
  0
LINE
  8
RIGHTSIDE
 10
314.919679
 20
82.669166
 30
0.0
 11
314.919679
 21
65.310041
 31
0.0
  0
LINE
  8
RIGHTSIDE
 10
301.669679
 20
110.645781
 30
0.0
 11
301.669679
 21
132.310041
 31
0.0
  0
LINE
  8
RIGHTSIDE
 10
300.669679
 20
119.945817
 30
0.0
 11
300.669679
 21
110.645781
 31
0.0
  0
LINE
  8
RIGHTSIDE
 10
299.669679
 20
112.736545
 30
0.0
 11
299.669679
 21
66.310041
 31
0.0
  0
LINE
  8
RIGHTSIDE
 10
495.669679
 20
71.310041
 30
0.0
 11
495.669679
 21
126.296748
 31
0.0
  0
LINE
  8
RIGHTSIDE
  6
DASHED
 10
142.669679
 20
129.310041
 30
0.0
 11
142.669679
 21
69.310041
 31
0.0
  0
LINE
  8
RIGHTSIDE
 10
298.669641
 20
137.810041
 30
0.0
 11
298.669641
 21
138.310041
 31
0.0
  0
LINE
  8
RIGHTSIDE
 10
318.669641
 20
137.810041
 30
0.0
 11
318.669641
 21
138.310041
 31
0.0
  0
LINE
  8
RIGHTSIDE
 10
318.669641
 20
138.310041
 30
0.0
 11
298.669641
 21
138.310041
 31
0.0
  0
LINE
  8
RIGHTSIDE
 10
318.669641
 20
137.810041
 30
0.0
 11
298.669641
 21
137.810041
 31
0.0
  0
LINE
  8
RIGHTSIDE
 10
299.669679
 20
132.310041
 30
0.0
 11
299.669679
 21
110.236545
 31
0.0
  0
LINE
  8
RIGHTSIDE
 10
480.169679
 20
53.310041
 30
0.0
 11
480.169679
 21
65.310041
 31
0.0
  0
LINE
  8
RIGHTSIDE
 10
300.669679
 20
132.310041
 30
0.0
 11
300.669679
 21
119.945817
 31
0.0
  0
LINE
  8
RIGHTSIDE
 10
299.204279
 20
131.810041
 30
0.0
 11
299.204279
 21
131.810041
 31
0.0
  0
LINE
  8
RIGHTSIDE
 10
301.669679
 20
66.310041
 30
0.0
 11
301.669679
 21
87.974302
 31
0.0
  0
LINE
  8
RIGHTSIDE
 10
481.919679
 20
68.310041
 30
0.0
 11
492.669679
 21
68.310041
 31
0.0
  0
ARC
  8
FRONTVIEW
 10
72.556159
 20
84.777319
 30
0.0
 40
8.989492
 50
102.326199
 51
77.94675
  0
ARC
  8
FRONTVIEW
 10
72.556159
 20
84.777319
 30
0.0
 40
10.557672
 50
111.378005
 51
68.894944
  0
LINE
  8
RIGHTSIDE
 10
271.669679
 20
108.411903
 30
0.0
 11
271.669679
 21
116.255694
 31
0.0
  0
LINE
  8
RIGHTSIDE
 10
274.373431
 20
117.273673
 30
0.0
 11
287.345722
 21
117.273673
 31
0.0
  0
LINE
  8
RIGHTSIDE
 10
274.373431
 20
107.393924
 30
0.0
 11
287.611032
 21
107.393924
 31
0.0
  0
LINE
  8
RIGHTSIDE
 10
274.373431
 20
107.393924
 30
0.0
 11
274.373431
 21
117.273673
 31
0.0
  0
LINE
  8
RIGHTSIDE
 10
272.484062
 20
117.070078
 30
0.0
 11
274.373431
 21
117.070078
 31
0.0
  0
LINE
  8
RIGHTSIDE
 10
272.484062
 20
107.597519
 30
0.0
 11
274.373431
 21
107.597519
 31
0.0
  0
ARC
  8
RIGHTSIDE
 10
272.484062
 20
116.255694
 30
0.0
 40
0.814383
 50
90.0
 51
180.0
  0
ARC
  8
RIGHTSIDE
 10
272.484062
 20
108.411903
 30
0.0
 40
0.814383
 50
180.0
 51
270.0
  0
ARC
  8
FRONTVIEW
 10
72.487435
 20
112.333799
 30
0.0
 40
4.940353
 50
338.798921
 51
202.330072
  0
ARC
  8
FRONTVIEW
 10
72.492751
 20
112.333799
 30
0.0
 40
4.299187
 50
349.950458
 51
191.482105
  0
ARC
  8
FRONTVIEW
 10
72.510764
 20
112.333799
 30
0.0
 40
11.8665
 50
299.056956
 51
0.0
  0
POLYLINE
  8
RIGHTSIDE
 66
     1
 10
0.0
 20
0.0
 30
0.0
 70
     1
  0
VERTEX
  8
RIGHTSIDE
 10
322.614914
 20
107.668994
 30
0.0
  0
VERTEX
  8
RIGHTSIDE
 10
306.168443
 20
107.668994
 30
0.0
  0
VERTEX
  8
RIGHTSIDE
 10
306.168443
 20
89.937364
 30
0.0
  0
VERTEX
  8
RIGHTSIDE
 10
322.614914
 20
89.937364
 30
0.0
  0
SEQEND
  8
RIGHTSIDE
  0
LINE
  8
FRONTVIEW
 10
94.806159
 20
53.310041
 30
0.0
 11
94.806159
 21
65.310041
 31
0.0
  0
LINE
  8
FRONTVIEW
 10
98.806159
 20
56.310041
 30
0.0
 11
98.806159
 21
62.500441
 31
0.0
  0
LINE
  8
FRONTVIEW
 10
98.806159
 20
53.310041
 30
0.0
 11
94.806159
 21
53.310041
 31
0.0
  0
LINE
  8
FRONTVIEW
 10
98.806159
 20
53.310041
 30
0.0
 11
98.806159
 21
65.310041
 31
0.0
  0
LINE
  8
FRONTVIEW
 10
101.043528
 20
82.652616
 30
0.0
 11
98.806159
 21
65.310041
 31
0.0
  0
LINE
  8
FRONTVIEW
 10
90.571321
 20
71.661281
 30
0.0
 11
94.806159
 21
65.310041
 31
0.0
  0
LINE
  8
FRONTVIEW
  6
DASHED
 10
82.556159
 20
138.310041
 30
0.0
 11
62.556159
 21
138.310041
 31
0.0
  0
LINE
  8
FRONTVIEW
  6
DASHED
 10
82.556159
 20
137.810041
 30
0.0
 11
62.556159
 21
137.810041
 31
0.0
  0
LINE
  8
FRONTVIEW
  6
DASHED
 10
62.556159
 20
137.810041
 30
0.0
 11
62.556159
 21
138.310041
 31
0.0
  0
LINE
  8
FRONTVIEW
  6
DASHED
 10
82.556159
 20
137.810041
 30
0.0
 11
82.556159
 21
138.310041
 31
0.0
  0
LINE
  8
FRONTVIEW
  6
DASHED
 10
81.556159
 20
131.059057
 30
0.0
 11
81.556159
 21
137.810041
 31
0.0
  0
LINE
  8
FRONTVIEW
  6
DASHED
 10
63.556159
 20
131.059057
 30
0.0
 11
63.556159
 21
137.810041
 31
0.0
  0
ARC
  8
RIGHTSIDE
 10
488.721593
 20
118.197346
 30
0.0
 40
13.054554
 50
90.94732
 51
143.635443
  0
LINE
  8
RIGHTSIDE
 10
479.919679
 20
120.794401
 30
0.0
 11
476.676593
 21
120.794401
 31
0.0
  0
ARC
  8
RIGHTSIDE
 10
476.676593
 20
123.794401
 30
0.0
 40
3.0
 50
171.933015
 51
270.0
  0
LINE
  8
RIGHTSIDE
 10
473.706279
 20
124.215393
 30
0.0
 11
474.943534
 21
132.944854
 31
0.0
  0
ARC
  8
RIGHTSIDE
 10
488.721593
 20
118.197346
 30
0.0
 40
13.242054
 50
90.94732
 51
143.24633
  0
LINE
  8
RIGHTSIDE
 10
489.627661
 20
131.43759
 30
0.0
 11
490.190161
 21
131.43759
 31
0.0
  0
LINE
  8
RIGHTSIDE
 10
489.627661
 20
129.296748
 30
0.0
 11
489.627661
 21
131.25009
 31
0.0
  0
LINE
  8
RIGHTSIDE
 10
488.690161
 20
131.25009
 30
0.0
 11
488.690161
 21
129.296748
 31
0.0
  0
LINE
  8
RIGHTSIDE
 10
488.502661
 20
131.43759
 30
0.0
 11
489.627661
 21
131.43759
 31
0.0
  0
LINE
  8
RIGHTSIDE
 10
490.190161
 20
131.25009
 30
0.0
 11
488.502661
 21
131.25009
 31
0.0
  0
LINE
  8
RIGHTSIDE
 10
490.190161
 20
131.25009
 30
0.0
 11
490.190161
 21
131.43759
 31
0.0
  0
LINE
  8
RIGHTSIDE
 10
489.837034
 20
133.795742
 30
0.0
 11
489.837034
 21
131.43759
 31
0.0
  0
LINE
  8
RIGHTSIDE
 10
488.690161
 20
134.164998
 30
0.0
 11
488.690161
 21
133.983242
 31
0.0
  0
LINE
  8
RIGHTSIDE
 10
489.627661
 20
133.983242
 30
0.0
 11
490.190161
 21
133.983242
 31
0.0
  0
LINE
  8
RIGHTSIDE
 10
490.190161
 20
133.795742
 30
0.0
 11
488.502661
 21
133.795742
 31
0.0
  0
LINE
  8
RIGHTSIDE
 10
488.502661
 20
133.983242
 30
0.0
 11
489.627661
 21
133.983242
 31
0.0
  0
LINE
  8
RIGHTSIDE
 10
489.627661
 20
133.983242
 30
0.0
 11
489.627661
 21
134.164998
 31
0.0
  0
LINE
  8
RIGHTSIDE
 10
490.190161
 20
133.795742
 30
0.0
 11
490.190161
 21
133.983242
 31
0.0
  0
LINE
  8
RIGHTSIDE
 10
488.690161
 20
134.164998
 30
0.0
 11
488.690161
 21
134.539998
 31
0.0
  0
LINE
  8
RIGHTSIDE
 10
489.627661
 20
134.164998
 30
0.0
 11
489.627661
 21
134.539998
 31
0.0
  0
LINE
  8
RIGHTSIDE
 10
489.627661
 20
134.539998
 30
0.0
 11
488.690161
 21
134.539998
 31
0.0
  0
ARC
  8
RIGHTSIDE
 10
487.033863
 20
113.272279
 30
0.0
 40
20.575481
 50
85.943439
 51
108.370634
  0
ARC
  8
RIGHTSIDE
 10
487.033863
 20
113.272279
 30
0.0
 40
20.762981
 50
85.943439
 51
108.301746
  0
ARC
  8
RIGHTSIDE
 10
479.131007
 20
137.069854
 30
0.0
 40
4.5
 50
270.0
 51
288.370634
  0
ARC
  8
RIGHTSIDE
 10
479.100746
 20
137.257354
 30
0.0
 40
4.5
 50
270.0
 51
288.301746
  0
LINE
  8
RIGHTSIDE
 10
476.018419
 20
132.569854
 30
0.0
 11
479.131007
 21
132.569854
 31
0.0
  0
LINE
  8
RIGHTSIDE
 10
476.018419
 20
132.757354
 30
0.0
 11
479.100746
 21
132.757354
 31
0.0
  0
LINE
  8
RIGHTSIDE
 10
474.972169
 20
125.444854
 30
0.0
 11
479.919679
 21
125.444854
 31
0.0
  0
LINE
  8
RIGHTSIDE
 10
474.972169
 20
125.351104
 30
0.0
 11
479.919679
 21
125.351104
 31
0.0
  0
ARC
  8
RIGHTSIDE
 10
477.605328
 20
126.382354
 30
0.0
 40
0.75
 50
270.0
 51
323.635443
  0
ARC
  8
RIGHTSIDE
 10
477.510943
 20
126.569854
 30
0.0
 40
0.75
 50
270.0
 51
323.24633
  0
LINE
  8
RIGHTSIDE
 10
477.705919
 20
125.632354
 30
0.0
 11
477.705919
 21
125.444854
 31
0.0
  0
LINE
  8
RIGHTSIDE
 10
477.705919
 20
125.632354
 30
0.0
 11
477.705919
 21
125.639131
 31
0.0
  0
LINE
  8
RIGHTSIDE
 10
477.705919
 20
132.569854
 30
0.0
 11
477.705919
 21
125.845641
 31
0.0
  0
LINE
  8
RIGHTSIDE
  6
CONTINUOUS
 10
475.440919
 20
132.310041
 30
0.0
 11
476.205919
 21
132.310041
 31
0.0
  0
LINE
  8
RIGHTSIDE
 10
475.347169
 20
132.944854
 30
0.0
 11
475.347169
 21
125.444854
 31
0.0
  0
LINE
  8
RIGHTSIDE
 10
475.440919
 20
132.944854
 30
0.0
 11
475.440919
 21
125.444854
 31
0.0
  0
LINE
  8
RIGHTSIDE
 10
476.205919
 20
132.569854
 30
0.0
 11
476.205919
 21
125.819854
 31
0.0
  0
LINE
  8
RIGHTSIDE
 10
474.972169
 20
125.444854
 30
0.0
 11
474.972169
 21
125.351104
 31
0.0
  0
LINE
  8
RIGHTSIDE
 10
476.205919
 20
125.632354
 30
0.0
 11
476.018419
 21
125.632354
 31
0.0
  0
LINE
  8
RIGHTSIDE
 10
476.018419
 20
125.632354
 30
0.0
 11
476.018419
 21
125.819854
 31
0.0
  0
LINE
  8
RIGHTSIDE
 10
476.018419
 20
125.819854
 30
0.0
 11
477.510943
 21
125.819854
 31
0.0
  0
LINE
  8
RIGHTSIDE
 10
477.605328
 20
125.632354
 30
0.0
 11
476.205919
 21
125.632354
 31
0.0
  0
LINE
  8
RIGHTSIDE
 10
476.205919
 20
125.632354
 30
0.0
 11
476.205919
 21
125.444854
 31
0.0
  0
LINE
  8
RIGHTSIDE
 10
477.705919
 20
132.944854
 30
0.0
 11
477.705919
 21
132.757354
 31
0.0
  0
LINE
  8
RIGHTSIDE
 10
474.193534
 20
132.944854
 30
0.0
 11
474.193534
 21
133.694854
 31
0.0
  0
LINE
  8
RIGHTSIDE
 10
476.205919
 20
132.944854
 30
0.0
 11
476.205919
 21
132.757354
 31
0.0
  0
LINE
  8
RIGHTSIDE
 10
476.018419
 20
132.757354
 30
0.0
 11
476.018419
 21
132.569854
 31
0.0
  0
LINE
  8
RIGHTSIDE
 10
479.652416
 20
132.944854
 30
0.0
 11
474.193534
 21
132.944854
 31
0.0
  0
LINE
  8
RIGHTSIDE
 10
479.652416
 20
133.694854
 30
0.0
 11
479.652416
 21
132.944854
 31
0.0
  0
LINE
  8
RIGHTSIDE
 10
474.193534
 20
133.694854
 30
0.0
 11
479.652416
 21
133.694854
 31
0.0
  0
LINE
  8
RIGHTSIDE
  6
CONTINUOUS
 10
291.169679
 20
71.310041
 30
0.0
 11
291.169679
 21
127.310041
 31
0.0
  0
LINE
  8
RIGHTSIDE
  6
CONTINUOUS
 10
299.669679
 20
130.310041
 30
0.0
 11
294.169679
 21
130.310041
 31
0.0
  0
ARC
  8
RIGHTSIDE
  6
CONTINUOUS
 10
294.169679
 20
127.310041
 30
0.0
 40
3.0
 50
90.0
 51
180.0
  0
ARC
  8
RIGHTSIDE
  6
CONTINUOUS
 10
294.169679
 20
71.310041
 30
0.0
 40
3.0
 50
180.0
 51
270.0
  0
LINE
  8
RIGHTSIDE
  6
CONTINUOUS
 10
299.669679
 20
68.310041
 30
0.0
 11
294.169679
 21
68.310041
 31
0.0
  0
LINE
  8
RIGHTSIDE
 10
330.155495
 20
132.310041
 30
0.0
 11
316.669641
 21
132.310041
 31
0.0
  0
LINE
  8
PLANVIEW
  6
DASHED
 10
650.669679
 20
298.419877
 30
0.0
 11
511.464281
 21
298.419877
 31
0.0
  0
LINE
  8
PLANVIEW
  6
DASHED
 10
650.669679
 20
238.419877
 30
0.0
 11
519.289647
 21
238.419877
 31
0.0
  0
LINE
  8
PLANVIEW
  6
DASHED
 10
287.064513
 20
238.419877
 30
0.0
 11
142.669679
 21
238.419877
 31
0.0
  0
LINE
  8
PLANVIEW
 10
291.169679
 20
240.419877
 30
0.0
 11
291.169679
 21
295.419877
 31
0.0
  0
ARC
  8
PLANVIEW
 10
294.169679
 20
295.419877
 30
0.0
 40
3.0
 50
90.0
 51
180.0
  0
LINE
  8
PLANVIEW
 10
294.169679
 20
298.419877
 30
0.0
 11
299.669679
 21
298.419877
 31
0.0
  0
ARC
  8
PLANVIEW
 10
294.169679
 20
240.419877
 30
0.0
 40
3.0
 50
180.0
 51
270.0
  0
LINE
  8
PLANVIEW
 10
294.169679
 20
237.419877
 30
0.0
 11
299.669679
 21
237.419877
 31
0.0
  0
LINE
  8
RIGHTSIDE
  6
DASHED
 10
650.669679
 20
69.310041
 30
0.0
 11
498.009999
 21
69.310041
 31
0.0
  0
LINE
  8
RIGHTSIDE
  6
DASHED
 10
650.669679
 20
129.310041
 30
0.0
 11
498.009999
 21
129.310041
 31
0.0
  0
LINE
  8
PLANVIEW
 10
332.456063
 20
235.419877
 30
0.0
 11
481.669679
 21
235.419877
 31
0.0
  0
LINE
  8
RIGHTSIDE
 10
316.669641
 20
132.310041
 30
0.0
 11
316.669641
 21
137.810041
 31
0.0
  0
LINE
  8
RIGHTSIDE
 10
300.669641
 20
131.810041
 30
0.0
 11
300.669641
 21
137.810041
 31
0.0
  0
LINE
  8
RIGHTSIDE
  6
DASHED
 10
288.645312
 20
69.310041
 30
0.0
 11
142.669679
 21
69.310041
 31
0.0
  0
TEXT
  8
PLANVIEW
  6
CONTINUOUS
 10
347.942308
 20
214.630124
 30
0.0
 40
5.0
  1
PLAN VIEW
  7
ROMANS
  0
LINE
  8
PLANVIEW
  6
CENTER
 10
505.86318
 20
268.419877
 30
0.0
 11
265.986397
 21
268.419877
 31
0.0
  0
LINE
  8
RIGHTSIDE
 10
208.285143
 20
53.310041
 30
0.0
 11
289.51042
 21
53.310041
 31
0.0
  0
LINE
  8
RIGHTSIDE
 10
573.054215
 20
53.310041
 30
0.0
 11
491.828938
 21
53.310041
 31
0.0
  0
LINE
  8
CAPTIONS
  6
DASHED
 10
142.669679
 20
176.098473
 30
0.0
 11
512.669679
 21
176.098473
 31
0.0
  0
LINE
  8
CAPTIONS
  6
DASHED
 10
650.669679
 20
230.641108
 30
0.0
 11
650.669679
 21
188.526766
 31
0.0
  0
LINE
  8
CAPTIONS
  6
DASHED
 10
650.669679
 20
188.526766
 30
0.0
 11
233.669679
 21
188.526766
 31
0.0
  0
LINE
  8
PLANVIEW
  6
DASHED
 10
233.669679
 20
233.919877
 30
0.0
 11
233.669679
 21
234.919877
 31
0.0
  0
LINE
  8
CAPTIONS
  6
DASHED
 10
142.669679
 20
224.29773
 30
0.0
 11
142.669679
 21
176.098473
 31
0.0
  0
LINE
  8
CAPTIONS
  6
DASHED
 10
233.669679
 20
221.612504
 30
0.0
 11
233.669679
 21
188.526766
 31
0.0
  0
TEXT
  8
CAPTIONS
  6
CONTINUOUS
 10
251.179155
 20
190.085053
 30
0.0
 40
5.0
  1
Distance required for tube removal from rear
  7
ROMANS
  0
TEXT
  8
CAPTIONS
  6
CONTINUOUS
 10
160.179155
 20
177.65676
 30
0.0
 40
5.0
  1
Distance required for tube removal from front
  7
ROMANS
  0
LINE
  8
RIGHTSIDE
 10
495.669679
 20
85.527299
 30
0.0
 11
498.58747
 21
85.527299
 31
0.0
  0
LINE
  8
RIGHTSIDE
 10
500.169807
 20
87.109805
 30
0.0
 11
500.169807
 21
81.606129
 31
0.0
  0
LINE
  8
RIGHTSIDE
 10
498.58747
 20
87.109805
 30
0.0
 11
500.169807
 21
87.109805
 31
0.0
  0
LINE
  8
RIGHTSIDE
 10
498.58747
 20
81.606129
 30
0.0
 11
500.169807
 21
81.606129
 31
0.0
  0
LINE
  8
RIGHTSIDE
 10
498.58747
 20
81.606129
 30
0.0
 11
498.58747
 21
87.109805
 31
0.0
  0
LINE
  8
RIGHTSIDE
 10
495.669679
 20
83.188635
 30
0.0
 11
498.58747
 21
83.188635
 31
0.0
  0
ARC
  8
RIGHTSIDE
  6
DASHED
 10
479.341969
 20
102.434107
 30
0.0
 40
33.722728
 50
304.656786
 51
71.867451
  0
ARC
  8
PLANVIEW
  6
CONTINUOUS
 10
332.06379
 20
230.587877
 30
0.0
 40
4.117427
 50
115.014734
 51
179.861012
  0
LINE
  8
PLANVIEW
 10
331.233573
 20
225.799772
 30
0.0
 11
331.233573
 21
226.555018
 31
0.0
  0
LINE
  8
PLANVIEW
 10
331.861845
 20
224.749772
 30
0.0
 11
331.861845
 21
223.984603
 31
0.0
  0
LINE
  8
PLANVIEW
  6
CONTINUOUS
 10
331.022709
 20
225.799772
 30
0.0
 11
331.022709
 21
224.749772
 31
0.0
  0
LINE
  8
PLANVIEW
  6
CONTINUOUS
 10
332.072709
 20
225.799772
 30
0.0
 11
331.022709
 21
225.799772
 31
0.0
  0
LINE
  8
PLANVIEW
  6
CONTINUOUS
 10
332.072709
 20
224.749772
 30
0.0
 11
332.072709
 21
225.799772
 31
0.0
  0
LINE
  8
PLANVIEW
  6
CONTINUOUS
 10
331.022709
 20
224.749772
 30
0.0
 11
332.072709
 21
224.749772
 31
0.0
  0
LINE
  8
PLANVIEW
 10
330.437013
 20
223.984603
 30
0.0
 11
330.437013
 21
223.419877
 31
0.0
  0
LINE
  8
PLANVIEW
 10
332.658405
 20
223.984603
 30
0.0
 11
332.658405
 21
223.419877
 31
0.0
  0
LINE
  8
PLANVIEW
 10
332.658405
 20
223.984603
 30
0.0
 11
330.437013
 21
223.984603
 31
0.0
  0
LINE
  8
PLANVIEW
 10
331.861845
 20
226.475405
 30
0.0
 11
331.861845
 21
225.799772
 31
0.0
  0
LINE
  8
PLANVIEW
 10
331.233573
 20
223.984603
 30
0.0
 11
331.233573
 21
224.749772
 31
0.0
  0
LINE
  8
PLANVIEW
  6
CONTINUOUS
 10
333.290484
 20
234.518326
 30
0.0
 11
334.567763
 21
234.962877
 31
0.0
  0
LINE
  8
PLANVIEW
 10
333.290484
 20
226.657428
 30
0.0
 11
334.567763
 21
226.212877
 31
0.0
  0
ARC
  8
PLANVIEW
  6
CONTINUOUS
 10
332.06379
 20
230.587877
 30
0.0
 40
4.117427
 50
72.666845
 51
84.533056
  0
ARC
  8
PLANVIEW
 10
332.06379
 20
230.587877
 30
0.0
 40
4.117427
 50
179.861012
 51
287.333155
  0
LINE
  8
PLANVIEW
 10
332.658405
 20
223.419877
 30
0.0
 11
330.437013
 21
223.419877
 31
0.0
  0
ARC
  8
PLANVIEW
  6
CONTINUOUS
 10
331.389397
 20
268.472913
 30
0.0
 40
2.205666
 50
298.920975
 51
241.079025
  0
ARC
  8
PLANVIEW
  6
CONTINUOUS
 10
331.389397
 20
268.472913
 30
0.0
 40
1.067984
 50
357.153517
 51
182.846483
  0
ARC
  8
PLANVIEW
  6
CONTINUOUS
 10
331.389397
 20
230.576615
 30
0.0
 40
1.066836
 50
181.021808
 51
358.978192
  0
LINE
  8
PLANVIEW
 10
332.456063
 20
230.557591
 30
0.0
 11
332.456063
 21
268.419877
 31
0.0
  0
LINE
  8
PLANVIEW
 10
330.32273
 20
230.557591
 30
0.0
 11
330.32273
 21
268.419877
 31
0.0
  0
ARC
  8
PLANVIEW
 10
331.43689
 20
230.587877
 30
0.0
 40
2.298745
 50
118.991636
 51
63.681507
  0
LINE
  8
PLANVIEW
 10
344.609671
 20
234.962877
 30
0.0
 11
344.609671
 21
226.212877
 31
0.0
  0
LINE
  8
PLANVIEW
 10
334.567763
 20
234.962877
 30
0.0
 11
344.609671
 21
234.962877
 31
0.0
  0
LINE
  8
PLANVIEW
 10
334.567763
 20
226.212877
 30
0.0
 11
344.609671
 21
226.212877
 31
0.0
  0
LINE
  8
FRONTVIEW
  6
CONTINUOUS
 10
116.053629
 20
117.233259
 30
0.0
 11
117.07029
 21
117.233259
 31
0.0
  0
LINE
  8
FRONTVIEW
  6
CONTINUOUS
 10
116.053629
 20
117.443259
 30
0.0
 11
117.07029
 21
117.443259
 31
0.0
  0
LINE
  8
FRONTVIEW
  6
CONTINUOUS
 10
117.49409
 20
118.141198
 30
0.0
 11
117.07029
 21
117.867254
 31
0.0
  0
LINE
  8
FRONTVIEW
  6
CONTINUOUS
 10
117.49409
 20
116.488088
 30
0.0
 11
117.49409
 21
118.141198
 31
0.0
  0
LINE
  8
FRONTVIEW
  6
CONTINUOUS
 10
117.07029
 20
116.847049
 30
0.0
 11
117.49409
 21
116.488088
 31
0.0
  0
LINE
  8
FRONTVIEW
  6
CONTINUOUS
 10
117.07029
 20
117.867254
 30
0.0
 11
117.07029
 21
116.847049
 31
0.0
  0
LINE
  8
FRONTVIEW
  6
CONTINUOUS
 10
117.07029
 20
113.606953
 30
0.0
 11
117.07029
 21
114.627158
 31
0.0
  0
LINE
  8
FRONTVIEW
  6
CONTINUOUS
 10
117.07029
 20
114.627158
 30
0.0
 11
117.49409
 21
114.986119
 31
0.0
  0
LINE
  8
FRONTVIEW
  6
CONTINUOUS
 10
117.49409
 20
114.986119
 30
0.0
 11
117.49409
 21
113.333009
 31
0.0
  0
LINE
  8
FRONTVIEW
  6
CONTINUOUS
 10
117.49409
 20
113.333009
 30
0.0
 11
117.07029
 21
113.606953
 31
0.0
  0
LINE
  8
FRONTVIEW
  6
CONTINUOUS
 10
116.053629
 20
114.030948
 30
0.0
 11
117.07029
 21
114.030948
 31
0.0
  0
LINE
  8
FRONTVIEW
  6
CONTINUOUS
 10
116.053629
 20
114.240948
 30
0.0
 11
117.07029
 21
114.240948
 31
0.0
  0
LINE
  8
FRONTVIEW
  6
CONTINUOUS
 10
113.542509
 20
112.91737
 30
0.0
 11
115.281481
 21
112.91737
 31
0.0
  0
LINE
  8
FRONTVIEW
  6
CONTINUOUS
 10
115.281481
 20
113.389687
 30
0.0
 11
113.595193
 21
113.389687
 31
0.0
  0
LINE
  8
FRONTVIEW
  6
CONTINUOUS
 10
115.281481
 20
118.08452
 30
0.0
 11
113.603444
 21
118.08452
 31
0.0
  0
LINE
  8
FRONTVIEW
  6
CONTINUOUS
 10
113.552442
 20
118.556837
 30
0.0
 11
115.281481
 21
118.556837
 31
0.0
  0
LINE
  8
FRONTVIEW
  6
CONTINUOUS
 10
116.053629
 20
119.765969
 30
0.0
 11
115.281481
 21
119.765969
 31
0.0
  0
ARC
  8
FRONTVIEW
  6
CONTINUOUS
 10
106.361963
 20
125.834258
 30
0.0
 40
0.7
 50
180.0
 51
270.0
  0
ARC
  8
FRONTVIEW
  6
CONTINUOUS
 10
106.361963
 20
127.418096
 30
0.0
 40
0.7
 50
90.0
 51
180.0
  0
ARC
  8
FRONTVIEW
  6
CONTINUOUS
 10
113.693167
 20
125.834258
 30
0.0
 40
0.7
 50
270.0
 51
0.0
  0
ARC
  8
FRONTVIEW
  6
CONTINUOUS
 10
113.693167
 20
127.418096
 30
0.0
 40
0.7
 50
0.0
 51
90.0
  0
LINE
  8
FRONTVIEW
 10
110.865272
 20
128.118096
 30
0.0
 11
110.865272
 21
133.950939
 31
0.0
  0
LINE
  8
FRONTVIEW
 10
109.144434
 20
128.118096
 30
0.0
 11
109.144434
 21
133.950939
 31
0.0
  0
LINE
  8
FRONTVIEW
  6
CONTINUOUS
 10
113.693167
 20
125.134258
 30
0.0
 11
106.361963
 21
125.134258
 31
0.0
  0
LINE
  8
FRONTVIEW
  6
CONTINUOUS
 10
113.693167
 20
128.118096
 30
0.0
 11
106.361963
 21
128.118096
 31
0.0
  0
LINE
  8
FRONTVIEW
  6
CENTER
 10
105.661963
 20
125.834258
 30
0.0
 11
105.661963
 21
127.418096
 31
0.0
  0
LINE
  8
FRONTVIEW
  6
CENTER
 10
114.393167
 20
125.834258
 30
0.0
 11
114.393167
 21
127.418096
 31
0.0
  0
LINE
  8
FRONTVIEW
 10
112.288889
 20
136.542683
 30
0.0
 11
107.766241
 21
136.542683
 31
0.0
  0
LINE
  8
FRONTVIEW
 10
112.288889
 20
134.946047
 30
0.0
 11
112.288889
 21
136.542683
 31
0.0
  0
LINE
  8
FRONTVIEW
 10
111.70952
 20
134.946047
 30
0.0
 11
112.288889
 21
134.946047
 31
0.0
  0
ARC
  8
FRONTVIEW
 10
111.70952
 20
134.279381
 30
0.0
 40
0.666667
 50
90.0
 51
180.0
  0
ARC
  8
FRONTVIEW
 10
108.34561
 20
134.279381
 30
0.0
 40
0.666667
 50
0.0
 51
90.0
  0
LINE
  8
FRONTVIEW
 10
111.042854
 20
133.950939
 30
0.0
 11
111.042854
 21
134.279381
 31
0.0
  0
LINE
  8
FRONTVIEW
 10
109.012277
 20
133.950939
 30
0.0
 11
111.042854
 21
133.950939
 31
0.0
  0
LINE
  8
FRONTVIEW
 10
109.012277
 20
134.279381
 30
0.0
 11
109.012277
 21
133.950939
 31
0.0
  0
LINE
  8
FRONTVIEW
 10
108.34561
 20
134.946047
 30
0.0
 11
107.766241
 21
134.946047
 31
0.0
  0
LINE
  8
FRONTVIEW
 10
107.766241
 20
134.946047
 30
0.0
 11
107.766241
 21
136.542683
 31
0.0
  0
LINE
  8
FRONTVIEW
 10
84.556159
 20
135.238724
 30
0.0
 11
107.766241
 21
135.238724
 31
0.0
  0
LINE
  8
FRONTVIEW
 10
84.556159
 20
136.227524
 30
0.0
 11
107.766241
 21
136.227524
 31
0.0
  0
LINE
  8
FRONTVIEW
  6
CONTINUOUS
 10
116.053629
 20
111.708238
 30
0.0
 11
116.053629
 21
119.765969
 31
0.0
  0
LINE
  8
FRONTVIEW
  6
CONTINUOUS
 10
115.281481
 20
111.708238
 30
0.0
 11
116.053629
 21
111.708238
 31
0.0
  0
LINE
  8
FRONTVIEW
  6
CONTINUOUS
 10
115.281481
 20
119.765969
 30
0.0
 11
115.281481
 21
111.708238
 31
0.0
  0
LINE
  8
FRONTVIEW
  6
CONTINUOUS
 10
111.945749
 20
107.668994
 30
0.0
 11
105.945749
 21
107.668994
 31
0.0
  0
LINE
  8
FRONTVIEW
  6
CONTINUOUS
 10
111.945749
 20
89.937364
 30
0.0
 11
105.945749
 21
89.937364
 31
0.0
  0
LINE
  8
FRONTVIEW
  6
CONTINUOUS
 10
105.945749
 20
107.668994
 30
0.0
 11
105.945749
 21
89.937364
 31
0.0
  0
LINE
  8
FRONTVIEW
  6
CONTINUOUS
 10
111.945749
 20
107.668994
 30
0.0
 11
111.945749
 21
89.937364
 31
0.0
  0
POLYLINE
  8
FRONTVIEW
  6
CONTINUOUS
 66
     1
 10
0.0
 20
0.0
 30
0.0
  0
VERTEX
  8
FRONTVIEW
  6
CONTINUOUS
 10
110.027565
 20
125.134258
 30
0.0
 42
0.205339
  0
VERTEX
  8
FRONTVIEW
  6
CONTINUOUS
 10
108.844914
 20
124.627188
 30
0.0
 42
0.09659
  0
VERTEX
  8
FRONTVIEW
  6
CONTINUOUS
 10
107.419454
 20
122.394024
 30
0.0
 42
0.053466
 70
     2
 50
248.483559
  0
VERTEX
  8
FRONTVIEW
  6
CONTINUOUS
 10
106.648703
 20
119.594972
 30
0.0
 42
0.04049
 50
248.483559
  0
VERTEX
  8
FRONTVIEW
  6
CONTINUOUS
 10
106.339139
 20
115.778516
 30
0.0
 42
0.04049
  0
VERTEX
  8
FRONTVIEW
  6
CONTINUOUS
 10
106.648703
 20
111.962059
 30
0.0
 42
0.053466
  0
VERTEX
  8
FRONTVIEW
  6
CONTINUOUS
 10
107.419454
 20
109.163007
 30
0.0
 42
0.061686
 70
     2
 50
291.516441
  0
VERTEX
  8
FRONTVIEW
  6
CONTINUOUS
 10
108.23321
 20
107.668994
 30
0.0
 42
0.205339
 50
291.516441
  0
SEQEND
  8
FRONTVIEW
  6
CONTINUOUS
  0
LINE
  8
FRONTVIEW
 10
101.143044
 20
108.408944
 30
0.0
 11
104.419225
 21
108.408944
 31
0.0
  0
LINE
  8
FRONTVIEW
 10
104.419225
 20
87.974302
 30
0.0
 11
104.419225
 21
110.645781
 31
0.0
  0
LINE
  8
FRONTVIEW
 10
104.419225
 20
87.974302
 30
0.0
 11
105.419225
 21
87.974302
 31
0.0
  0
LINE
  8
FRONTVIEW
 10
104.419225
 20
110.645781
 30
0.0
 11
105.419225
 21
110.645781
 31
0.0
  0
LINE
  8
FRONTVIEW
 10
101.143044
 20
90.211138
 30
0.0
 11
104.419225
 21
90.211138
 31
0.0
  0
LINE
  8
FRONTVIEW
 10
105.419225
 20
87.974302
 30
0.0
 11
105.419225
 21
110.645781
 31
0.0
  0
POLYLINE
  8
FRONTVIEW
  6
CONTINUOUS
 66
     1
 10
0.0
 20
0.0
 30
0.0
  0
VERTEX
  8
FRONTVIEW
  6
CONTINUOUS
 10
111.821921
 20
107.668994
 30
0.0
 42
0.061686
  0
VERTEX
  8
FRONTVIEW
  6
CONTINUOUS
 10
112.635677
 20
109.163007
 30
0.0
 42
0.053466
 70
     2
 50
68.483559
  0
VERTEX
  8
FRONTVIEW
  6
CONTINUOUS
 10
113.406428
 20
111.962059
 30
0.0
 42
0.04049
 50
68.483559
  0
VERTEX
  8
FRONTVIEW
  6
CONTINUOUS
 10
113.715992
 20
115.778516
 30
0.0
 42
0.04049
  0
VERTEX
  8
FRONTVIEW
  6
CONTINUOUS
 10
113.406428
 20
119.594972
 30
0.0
 42
0.053466
  0
VERTEX
  8
FRONTVIEW
  6
CONTINUOUS
 10
112.635677
 20
122.394024
 30
0.0
 42
0.09659
 70
     2
 50
111.516441
  0
VERTEX
  8
FRONTVIEW
  6
CONTINUOUS
 10
111.210217
 20
124.627188
 30
0.0
 42
0.205339
 50
111.516441
  0
VERTEX
  8
FRONTVIEW
  6
CONTINUOUS
 10
110.027565
 20
125.134258
 30
0.0
 42
0.205339
  0
SEQEND
  8
FRONTVIEW
  6
CONTINUOUS
  0
LINE
  8
FRONTVIEW
  6
CONTINUOUS
 10
60.556159
 20
141.334703
 30
0.0
 11
84.556159
 21
141.334703
 31
0.0
  0
LINE
  8
FRONTVIEW
  6
CONTINUOUS
 10
84.377264
 20
123.334703
 30
0.0
 11
84.377264
 21
112.333799
 31
0.0
  0
LINE
  8
FRONTVIEW
  6
CONTINUOUS
 10
60.644264
 20
123.334703
 30
0.0
 11
60.644264
 21
112.333799
 31
0.0
  0
LINE
  8
FRONTVIEW
  6
CONTINUOUS
 10
69.148494
 20
113.928906
 30
0.0
 11
67.056329
 21
108.027451
 31
0.0
  0
LINE
  8
FRONTVIEW
  6
CONTINUOUS
 10
66.768946
 20
106.356749
 30
0.0
 11
66.768946
 21
98.570817
 31
0.0
  0
LINE
  8
FRONTVIEW
  6
CONTINUOUS
 10
78.274072
 20
98.570817
 30
0.0
 11
78.274072
 21
106.356749
 31
0.0
  0
LINE
  8
FRONTVIEW
  6
CONTINUOUS
 10
77.986688
 20
108.027451
 30
0.0
 11
75.894522
 21
113.928909
 31
0.0
  0
ARC
  8
FRONTVIEW
  6
CONTINUOUS
 10
72.521509
 20
112.333799
 30
0.0
 40
3.731166
 50
25.309642
 51
154.690358
  0
ARC
  8
FRONTVIEW
  6
CONTINUOUS
 10
72.521509
 20
99.324488
 30
0.0
 40
6.065069
 50
225.042138
 51
314.957862
  0
LINE
  8
FRONTVIEW
  6
CONTINUOUS
 10
60.556159
 20
123.334703
 30
0.0
 11
84.556159
 21
123.334703
 31
0.0
  0
LINE
  8
FRONTVIEW
  6
CONTINUOUS
 10
60.556159
 20
141.334703
 30
0.0
 11
60.556159
 21
123.334703
 31
0.0
  0
LINE
  8
FRONTVIEW
  6
CONTINUOUS
 10
84.556159
 20
141.334703
 30
0.0
 11
84.556159
 21
123.334703
 31
0.0
  0
INSERT
  8
FRONTVIEW
  6
CONTINUOUS
  2
NAME
 10
72.556159
 20
125.576327
 30
0.0
  0
ARC
  8
FRONTVIEW
  6
CONTINUOUS
 10
73.274072
 20
106.356749
 30
0.0
 40
5.0
 50
0.0
 51
19.520272
  0
ARC
  8
FRONTVIEW
  6
CONTINUOUS
 10
71.768946
 20
106.356749
 30
0.0
 40
5.0
 50
160.479731
 51
180.0
  0
ARC
  8
FRONTVIEW
  6
CONTINUOUS
 10
71.768946
 20
98.570817
 30
0.0
 40
5.0
 50
180.0
 51
225.042138
  0
ARC
  8
FRONTVIEW
  6
CONTINUOUS
 10
73.274072
 20
98.570817
 30
0.0
 40
5.0
 50
314.957862
 51
0.0
  0
ARC
  8
FRONTVIEW
 10
72.510764
 20
112.333799
 30
0.0
 40
11.8665
 50
180.0
 51
241.061672
  0
ARC
  8
FRONTVIEW
  6
CONTINUOUS
 10
72.556159
 20
112.333799
 30
0.0
 40
14.626005
 50
293.013096
 51
36.077118
  0
ARC
  8
FRONTVIEW
  6
CONTINUOUS
 10
72.556159
 20
112.333799
 30
0.0
 40
14.626005
 50
144.531293
 51
246.691627
  0
LINE
  8
FRONTVIEW
 10
98.806159
 20
65.310041
 30
0.0
 11
94.806159
 21
65.310041
 31
0.0
  0
LINE
  8
FRONTVIEW
 10
46.306159
 20
65.310041
 30
0.0
 11
50.306159
 21
65.310041
 31
0.0
  0
LINE
  8
RIGHTSIDE
  6
CONTINUOUS
 10
267.669679
 20
93.259518
 30
0.0
 11
267.669679
 21
118.722237
 31
0.0
  0
LINE
  8
RIGHTSIDE
  6
CONTINUOUS
 10
267.669679
 20
93.259518
 30
0.0
 11
271.669679
 21
93.259518
 31
0.0
  0
LINE
  8
RIGHTSIDE
  6
CONTINUOUS
 10
273.362507
 20
94.315908
 30
0.0
 11
273.362507
 21
101.508294
 31
0.0
  0
LINE
  8
RIGHTSIDE
  6
CONTINUOUS
 10
276.805676
 20
94.315908
 30
0.0
 11
276.805676
 21
101.508294
 31
0.0
  0
LINE
  8
RIGHTSIDE
  6
CONTINUOUS
 10
278.193222
 20
95.359559
 30
0.0
 11
278.193222
 21
100.464644
 31
0.0
  0
LINE
  8
RIGHTSIDE
  6
CONTINUOUS
 10
273.362507
 20
101.508294
 30
0.0
 11
276.805676
 21
101.508294
 31
0.0
  0
LINE
  8
RIGHTSIDE
  6
CONTINUOUS
 10
271.669679
 20
93.259518
 30
0.0
 11
271.669679
 21
118.722237
 31
0.0
  0
LINE
  8
RIGHTSIDE
  6
CONTINUOUS
 10
267.669679
 20
118.722237
 30
0.0
 11
271.669679
 21
118.722237
 31
0.0
  0
LINE
  8
RIGHTSIDE
  6
CONTINUOUS
 10
271.669679
 20
100.464644
 30
0.0
 11
273.362507
 21
100.464644
 31
0.0
  0
LINE
  8
RIGHTSIDE
  6
CONTINUOUS
 10
273.362507
 20
94.315908
 30
0.0
 11
276.805676
 21
94.315908
 31
0.0
  0
LINE
  8
RIGHTSIDE
  6
CONTINUOUS
 10
271.669679
 20
95.359559
 30
0.0
 11
273.362507
 21
95.359559
 31
0.0
  0
LINE
  8
RIGHTSIDE
  6
CONTINUOUS
 10
276.805676
 20
100.464644
 30
0.0
 11
278.193222
 21
100.464644
 31
0.0
  0
LINE
  8
RIGHTSIDE
  6
CONTINUOUS
 10
276.805676
 20
95.359559
 30
0.0
 11
278.193222
 21
95.359559
 31
0.0
  0
LINE
  8
PLANVIEW
  6
DASHED
 10
261.508794
 20
201.919877
 30
0.0
 11
261.508794
 21
205.919877
 31
0.0
  0
LINE
  8
PLANVIEW
  6
DASHED
 10
271.681883
 20
205.919877
 30
0.0
 11
261.508794
 21
205.919877
 31
0.0
  0
LINE
  8
PLANVIEW
  6
DASHED
 10
271.681883
 20
201.919877
 30
0.0
 11
261.508794
 21
201.919877
 31
0.0
  0
ARC
  8
PLANVIEW
  6
DASHED
 10
270.517234
 20
206.73426
 30
0.0
 40
0.814383
 50
270.0
 51
360.0
  0
ARC
  8
PLANVIEW
  6
DASHED
 10
262.673443
 20
206.73426
 30
0.0
 40
0.814383
 50
180.0
 51
270.0
  0
LINE
  8
PLANVIEW
  6
DASHED
 10
271.331617
 20
206.73426
 30
0.0
 11
271.331617
 21
208.623629
 31
0.0
  0
LINE
  8
PLANVIEW
  6
DASHED
 10
261.859059
 20
206.73426
 30
0.0
 11
261.859059
 21
208.623629
 31
0.0
  0
LINE
  8
PLANVIEW
  6
DASHED
 10
271.535213
 20
208.623629
 30
0.0
 11
261.655464
 21
208.623629
 31
0.0
  0
LINE
  8
PLANVIEW
  6
DASHED
 10
271.535213
 20
208.623629
 30
0.0
 11
271.535213
 21
213.419877
 31
0.0
  0
LINE
  8
PLANVIEW
  6
DASHED
 10
261.655464
 20
208.623629
 30
0.0
 11
261.655464
 21
213.419877
 31
0.0
  0
LINE
  8
PLANVIEW
  6
DASHED
 10
270.517234
 20
205.919877
 30
0.0
 11
262.673443
 21
205.919877
 31
0.0
  0
LINE
  8
PLANVIEW
  6
DASHED
 10
271.681883
 20
201.919877
 30
0.0
 11
271.681883
 21
205.919877
 31
0.0
  0
ARC
  8
PLANVIEW
  6
DASHED
 10
238.669679
 20
228.419877
 30
0.0
 40
3.0
 50
180.0
 51
270.0
  0
LINE
  8
PLANVIEW
 10
267.669679
 20
263.407673
 30
0.0
 11
271.669679
 21
263.407673
 31
0.0
  0
LINE
  8
PLANVIEW
 10
271.669679
 20
264.572322
 30
0.0
 11
271.669679
 21
272.416113
 31
0.0
  0
LINE
  8
PLANVIEW
 10
274.373431
 20
273.434092
 30
0.0
 11
279.169679
 21
273.434092
 31
0.0
  0
LINE
  8
PLANVIEW
 10
274.373431
 20
263.554343
 30
0.0
 11
279.169679
 21
263.554343
 31
0.0
  0
LINE
  8
PLANVIEW
 10
274.373431
 20
263.554343
 30
0.0
 11
274.373431
 21
273.434092
 31
0.0
  0
LINE
  8
PLANVIEW
 10
272.484062
 20
273.230497
 30
0.0
 11
274.373431
 21
273.230497
 31
0.0
  0
LINE
  8
PLANVIEW
 10
272.484062
 20
263.757939
 30
0.0
 11
274.373431
 21
263.757939
 31
0.0
  0
ARC
  8
PLANVIEW
 10
272.484062
 20
272.416113
 30
0.0
 40
0.814383
 50
90.0
 51
180.0
  0
ARC
  8
PLANVIEW
 10
272.484062
 20
264.572322
 30
0.0
 40
0.814383
 50
180.0
 51
270.0
  0
LINE
  8
PLANVIEW
 10
267.669679
 20
263.407673
 30
0.0
 11
267.669679
 21
273.580762
 31
0.0
  0
LINE
  8
PLANVIEW
 10
271.669679
 20
263.407673
 30
0.0
 11
271.669679
 21
273.580762
 31
0.0
  0
LINE
  8
PLANVIEW
 10
267.669679
 20
273.580762
 30
0.0
 11
271.669679
 21
273.580762
 31
0.0
  0
LINE
  8
PLANVIEW
  6
CONTINUOUS
 10
279.169679
 20
280.419877
 30
0.0
 11
294.859145
 21
280.419877
 31
0.0
  0
LINE
  8
PLANVIEW
  6
CONTINUOUS
 10
279.169679
 20
256.419877
 30
0.0
 11
294.859145
 21
256.419877
 31
0.0
  0
LINE
  8
PLANVIEW
  6
CONTINUOUS
 10
279.169679
 20
256.419877
 30
0.0
 11
279.169679
 21
280.419877
 31
0.0
  0
LINE
  8
PLANVIEW
 10
287.169679
 20
256.419877
 30
0.0
 11
287.169679
 21
280.419877
 31
0.0
  0
LINE
  8
PLANVIEW
  6
DASHED
 10
278.669679
 20
213.419877
 30
0.0
 11
278.669679
 21
229.109342
 31
0.0
  0
LINE
  8
PLANVIEW
  6
DASHED
 10
278.669679
 20
221.419877
 30
0.0
 11
254.669679
 21
221.419877
 31
0.0
  0
LINE
  8
PLANVIEW
  6
DASHED
 10
278.669679
 20
213.419877
 30
0.0
 11
254.669679
 21
213.419877
 31
0.0
  0
LINE
  8
PLANVIEW
  6
DASHED
 10
254.669679
 20
213.419877
 30
0.0
 11
254.669679
 21
229.109342
 31
0.0
  0
LINE
  8
RIGHTSIDE
  6
CONTINUOUS
 10
279.169679
 20
141.334703
 30
0.0
 11
279.169679
 21
123.829251
 31
0.0
  0
LINE
  8
RIGHTSIDE
  6
CONTINUOUS
 10
287.169679
 20
141.334703
 30
0.0
 11
287.169679
 21
123.829251
 31
0.0
  0
LINE
  8
RIGHTSIDE
  6
CONTINUOUS
 10
279.169679
 20
141.334703
 30
0.0
 11
287.169679
 21
141.334703
 31
0.0
  0
LINE
  8
RIGHTSIDE
  6
CONTINUOUS
 10
279.169679
 20
123.829251
 30
0.0
 11
287.169679
 21
123.829251
 31
0.0
  0
LINE
  8
RIGHTSIDE
  6
CONTINUOUS
 10
287.797037
 20
100.467385
 30
0.0
 11
291.169679
 21
100.467385
 31
0.0
  0
LINE
  8
RIGHTSIDE
  6
CONTINUOUS
 10
287.797037
 20
100.467385
 30
0.0
 11
287.169679
 21
123.829251
 31
0.0
  0
LINE
  8
RIGHTSIDE
  6
CONTINUOUS
 10
287.169679
 20
129.262001
 30
0.0
 11
291.199014
 21
129.262001
 31
0.0
  0
LINE
  8
RIGHTSIDE
  6
CONTINUOUS
 10
292.903862
 20
136.996662
 30
0.0
 11
287.169679
 21
136.996662
 31
0.0
  0
LINE
  8
RIGHTSIDE
  6
CONTINUOUS
 10
290.392698
 20
130.809794
 30
0.0
 11
293.714656
 21
135.411331
 31
0.0
  0
LINE
  8
RIGHTSIDE
  6
CONTINUOUS
 10
287.169679
 20
127.728546
 30
0.0
 11
291.199014
 21
127.728546
 31
0.0
  0
LINE
  8
RIGHTSIDE
  6
CONTINUOUS
 10
291.199014
 20
127.728546
 30
0.0
 11
291.199014
 21
129.262001
 31
0.0
  0
LINE
  8
RIGHTSIDE
  6
CONTINUOUS
 10
287.169679
 20
136.996662
 30
0.0
 11
291.199014
 21
129.262001
 31
0.0
  0
LINE
  8
PLANVIEW
  6
CONTINUOUS
 10
294.859145
 20
256.419877
 30
0.0
 11
294.859145
 21
280.419877
 31
0.0
  0
LINE
  8
PLANVIEW
  6
DASHED
 10
278.669679
 20
229.109342
 30
0.0
 11
254.669679
 21
229.109342
 31
0.0
  0
LINE
  8
PLANVIEW
 10
481.669679
 20
301.419877
 30
0.0
 11
299.669679
 21
301.419877
 31
0.0
  0
LINE
  8
PLANVIEW
  6
DASHED
 10
281.377708
 20
298.419877
 30
0.0
 11
142.669679
 21
298.419877
 31
0.0
  0
ARC
  8
PLANVIEW
  6
DASHED
 10
306.630052
 20
227.985094
 30
0.0
 40
73.390577
 50
98.506951
 51
173.793209
  0
ARC
  8
RIGHTSIDE
  6
CONTINUOUS
 10
336.560001
 20
121.886908
 30
0.0
 40
7.08319
 50
318.185931
 51
10.105012
  0
LINE
  8
RIGHTSIDE
 10
333.850523
 20
106.459797
 30
0.0
 11
333.849158
 21
107.257398
 31
0.0
  0
LINE
  8
RIGHTSIDE
 10
328.592092
 20
106.458078
 30
0.0
 11
328.590733
 21
107.245589
 31
0.0
  0
ARC
  8
RIGHTSIDE
 10
335.382324
 20
121.716055
 30
0.0
 40
1.0
 50
179.840645
 51
269.947215
  0
LINE
  8
RIGHTSIDE
 10
334.382329
 20
121.718836
 30
0.0
 11
334.391585
 21
125.046842
 31
0.0
  0
LINE
  8
RIGHTSIDE
 10
328.592092
 20
126.775757
 30
0.0
 11
328.590679
 21
125.957165
 31
0.0
  0
LINE
  8
RIGHTSIDE
 10
333.850523
 20
126.774038
 30
0.0
 11
333.849145
 21
125.96894
 31
0.0
  0
ARC
  8
RIGHTSIDE
 10
328.005906
 20
144.093922
 30
0.0
 40
31.144841
 50
283.221472
 51
296.455185
  0
ARC
  8
RIGHTSIDE
 10
333.341589
 20
125.05279
 30
0.0
 40
1.05
 50
359.840645
 51
89.670485
  0
LINE
  8
RIGHTSIDE
 10
334.347287
 20
108.119561
 30
0.0
 11
334.357939
 21
112.80341
 31
0.0
  0
ARC
  8
RIGHTSIDE
 10
333.347291
 20
108.122342
 30
0.0
 40
1.0
 50
269.840645
 51
359.840645
  0
ARC
  8
RIGHTSIDE
 10
329.065877
 20
108.125496
 30
0.0
 40
1.0
 50
179.840645
 51
269.840645
  0
ARC
  8
RIGHTSIDE
 10
329.110315
 20
125.102777
 30
0.0
 40
1.0
 50
89.840645
 51
179.840645
  0
ARC
  8
RIGHTSIDE
 10
337.269781
 20
123.147095
 30
0.0
 40
1.933515
 50
312.70015
 51
327.622896
  0
ARC
  8
RIGHTSIDE
 10
339.935502
 20
117.780688
 30
0.0
 40
2.499999
 50
321.090906
 51
332.831874
  0
LINE
  8
RIGHTSIDE
 10
338.902716
 20
122.111719
 30
0.0
 11
342.155624
 21
116.631316
 31
0.0
  0
LINE
  8
RIGHTSIDE
 10
338.581017
 20
121.726131
 30
0.0
 11
341.880861
 21
116.210472
 31
0.0
  0
ARC
  8
RIGHTSIDE
 10
337.269781
 20
123.147095
 30
0.0
 40
2.433514
 50
321.783307
 51
359.840645
  0
LINE
  8
RIGHTSIDE
 10
329.063096
 20
107.1255
 30
0.0
 11
333.34451
 21
107.122346
 31
0.0
  0
LINE
  8
RIGHTSIDE
 10
335.381403
 20
120.716055
 30
0.0
 11
337.363774
 21
120.715397
 31
0.0
  0
LINE
  8
RIGHTSIDE
 10
328.110318
 20
125.105559
 30
0.0
 11
328.065881
 21
108.128277
 31
0.0
  0
LINE
  8
RIGHTSIDE
  6
CONTINUOUS
 10
330.155495
 20
135.042248
 30
0.0
 11
330.155495
 21
127.274894
 31
0.0
  0
LINE
  8
RIGHTSIDE
  6
CONTINUOUS
 10
332.288828
 20
135.042248
 30
0.0
 11
332.288828
 21
127.274894
 31
0.0
  0
ARC
  8
RIGHTSIDE
  6
CONTINUOUS
 10
331.222162
 20
99.310041
 30
0.0
 40
1.066706
 50
179.509422
 51
0.490578
  0
ARC
  8
RIGHTSIDE
  6
CONTINUOUS
 10
331.222162
 20
99.310041
 30
0.0
 40
2.026873
 50
121.753237
 51
58.246763
  0
ARC
  8
RIGHTSIDE
 10
337.269781
 20
123.147095
 30
0.0
 40
2.433514
 50
269.840645
 51
310.249008
  0
LINE
  8
RIGHTSIDE
  6
CONTINUOUS
 10
336.896695
 20
123.642605
 30
0.0
 11
344.575245
 21
123.642605
 31
0.0
  0
LINE
  8
RIGHTSIDE
  6
CONTINUOUS
 10
344.576523
 20
124.10236
 30
0.0
 11
337.423874
 21
124.10236
 31
0.0
  0
LINE
  8
RIGHTSIDE
  6
CONTINUOUS
 10
336.896695
 20
123.142606
 30
0.0
 11
344.576523
 21
123.142606
 31
0.0
  0
LINE
  8
RIGHTSIDE
  6
CONTINUOUS
 10
344.576523
 20
124.10236
 30
0.0
 11
344.576523
 21
123.142606
 31
0.0
  0
LINE
  8
RIGHTSIDE
  6
CONTINUOUS
 10
337.423874
 20
124.10236
 30
0.0
 11
337.423874
 21
123.642605
 31
0.0
  0
LINE
  8
RIGHTSIDE
  6
CONTINUOUS
 10
336.896695
 20
123.642605
 30
0.0
 11
336.896695
 21
123.142606
 31
0.0
  0
ARC
  8
RIGHTSIDE
  6
CONTINUOUS
 10
331.222162
 20
135.051381
 30
0.0
 40
1.066706
 50
359.509422
 51
180.490578
  0
LINE
  8
RIGHTSIDE
  6
CONTINUOUS
 10
332.288828
 20
105.958941
 30
0.0
 11
332.288828
 21
99.300908
 31
0.0
  0
LINE
  8
RIGHTSIDE
  6
CONTINUOUS
 10
330.155495
 20
105.960685
 30
0.0
 11
330.155495
 21
99.300908
 31
0.0
  0
ARC
  8
RIGHTSIDE
  6
CONTINUOUS
 10
331.222162
 20
135.051381
 30
0.0
 40
1.525326
 50
314.37119
 51
225.62881
  0
LINE
  8
RIGHTSIDE
  6
CONTINUOUS
 10
329.092091
 20
127.274894
 30
0.0
 11
333.350524
 21
127.274894
 31
0.0
  0
LINE
  8
RIGHTSIDE
  6
CONTINUOUS
 10
329.092091
 20
105.958941
 30
0.0
 11
333.350524
 21
105.958941
 31
0.0
  0
LINE
  8
RIGHTSIDE
  6
CONTINUOUS
 10
329.113096
 20
126.102773
 30
0.0
 11
333.347627
 21
126.102773
 31
0.0
  0
ARC
  8
RIGHTSIDE
 10
335.357936
 20
112.801136
 30
0.0
 40
1.0
 50
103.221472
 51
179.869697
  0
ARC
  8
RIGHTSIDE
  6
CONTINUOUS
 10
329.092091
 20
126.774894
 30
0.0
 40
0.5
 50
90.0
 51
179.901125
  0
ARC
  8
RIGHTSIDE
  6
CONTINUOUS
 10
333.350524
 20
126.774894
 30
0.0
 40
0.5
 50
359.901898
 51
90.0
  0
ARC
  8
RIGHTSIDE
  6
CONTINUOUS
 10
329.092091
 20
106.458941
 30
0.0
 40
0.5
 50
180.098875
 51
270.0
  0
ARC
  8
RIGHTSIDE
  6
CONTINUOUS
 10
333.350524
 20
106.458941
 30
0.0
 40
0.5
 50
270.0
 51
0.098101
  0
LINE
  8
CAPTIONS
  6
CENTER
 10
449.689835
 20
200.419877
 30
0.0
 11
337.91889
 21
200.419877
 31
0.0
  0
TEXT
  8
CAPTIONS
  6
CONTINUOUS
 10
337.803882
 20
201.686109
 30
0.0
 40
5.0
  1
Rear door clearance to side
  7
ROMANS
  0
LINE
  8
PLANVIEW
  6
CONTINUOUS
 10
449.76924
 20
211.151039
 30
0.0
 11
449.349176
 21
212.058534
 31
0.0
  0
LINE
  8
PLANVIEW
  6
DASHED
 10
484.467841
 20
211.964902
 30
0.0
 11
485.745959
 21
209.20369
 31
0.0
  0
LINE
  8
PLANVIEW
  6
DASHED
 10
484.309843
 20
208.538937
 30
0.0
 11
489.304399
 21
210.850832
 31
0.0
  0
LINE
  8
PLANVIEW
  6
DASHED
 10
484.309843
 20
208.538937
 30
0.0
 11
484.974526
 21
207.102975
 31
0.0
  0
LINE
  8
PLANVIEW
  6
DASHED
 10
489.304399
 20
210.850832
 30
0.0
 11
489.969082
 21
209.414869
 31
0.0
  0
LINE
  8
PLANVIEW
  6
DASHED
 10
489.969082
 20
209.414869
 30
0.0
 11
484.974526
 21
207.102975
 31
0.0
  0
LINE
  8
PLANVIEW
  6
DASHED
 10
486.590166
 20
212.94729
 30
0.0
 11
487.868284
 21
210.186078
 31
0.0
  0
ARC
  8
PLANVIEW
  6
DASHED
 10
458.858964
 20
203.416795
 30
0.0
 40
3.0
 50
204.83861
 51
294.83861
  0
LINE
  8
PLANVIEW
  6
DASHED
 10
456.13648
 20
202.156604
 30
0.0
 11
451.584229
 21
211.991167
 31
0.0
  0
CIRCLE
  8
PLANVIEW
  6
CONTINUOUS
 10
482.851858
 20
218.239732
 30
0.0
 40
1.174405
  0
ARC
  8
PLANVIEW
  6
DASHED
 10
470.138739
 20
246.12366
 30
0.0
 40
30.645339
 50
285.520174
 51
58.982528
  0
LINE
  8
PLANVIEW
  6
DASHED
 10
510.938853
 20
224.21788
 30
0.0
 11
460.119155
 21
200.694312
 31
0.0
  0
LINE
  8
PLANVIEW
  6
DASHED
 10
509.663884
 20
238.875245
 30
0.0
 11
449.76924
 21
211.151039
 31
0.0
  0
LINE
  8
PLANVIEW
  6
DASHED
 10
509.24382
 20
239.78274
 30
0.0
 11
449.349176
 21
212.058534
 31
0.0
  0
LINE
  8
PLANVIEW
 10
481.669679
 20
237.419877
 30
0.0
 11
492.506728
 21
237.419877
 31
0.0
  0
LINE
  8
PLANVIEW
  6
CONTINUOUS
 10
509.663884
 20
238.875245
 30
0.0
 11
509.24382
 21
239.78274
 31
0.0
  0
LINE
  8
PLANVIEW
 10
495.506728
 20
269.589209
 30
0.0
 11
498.572813
 21
269.589209
 31
0.0
  0
LINE
  8
PLANVIEW
 10
500.15515
 20
271.171715
 30
0.0
 11
500.15515
 21
265.668039
 31
0.0
  0
LINE
  8
PLANVIEW
 10
498.572813
 20
271.171715
 30
0.0
 11
500.15515
 21
271.171715
 31
0.0
  0
LINE
  8
PLANVIEW
 10
498.572813
 20
265.668039
 30
0.0
 11
500.15515
 21
265.668039
 31
0.0
  0
LINE
  8
PLANVIEW
 10
498.572813
 20
265.668039
 30
0.0
 11
498.572813
 21
271.171715
 31
0.0
  0
LINE
  8
PLANVIEW
 10
495.506728
 20
267.250545
 30
0.0
 11
498.572813
 21
267.250545
 31
0.0
  0
ARC
  8
PLANVIEW
  6
CONTINUOUS
 10
490.899158
 20
268.665661
 30
0.0
 40
1.474244
 50
315.521878
 51
135.521878
  0
ARC
  8
PLANVIEW
 10
492.506728
 20
240.419877
 30
0.0
 40
3.0
 50
270.0
 51
0.0
  0
ARC
  8
PLANVIEW
  6
DASHED
 10
509.678662
 20
226.940364
 30
0.0
 40
3.0
 50
294.83861
 51
24.83861
  0
LINE
  8
PLANVIEW
  6
DASHED
 10
512.401146
 20
228.200555
 30
0.0
 11
507.848895
 21
238.035118
 31
0.0
  0
LINE
  8
PLANVIEW
 10
480.669679
 20
253.466742
 30
0.0
 11
480.669679
 21
235.419877
 31
0.0
  0
LINE
  8
PLANVIEW
 10
479.669679
 20
252.898993
 30
0.0
 11
479.669679
 21
235.419877
 31
0.0
  0
LINE
  8
PLANVIEW
 10
481.669679
 20
255.298359
 30
0.0
 11
481.669679
 21
235.419877
 31
0.0
  0
LINE
  8
PLANVIEW
 10
479.669679
 20
301.419877
 30
0.0
 11
479.669679
 21
259.691534
 31
0.0
  0
LINE
  8
PLANVIEW
 10
495.506728
 20
240.419877
 30
0.0
 11
495.506728
 21
296.419877
 31
0.0
  0
LINE
  8
PLANVIEW
 10
481.669679
 20
301.419877
 30
0.0
 11
481.669679
 21
261.65802
 31
0.0
  0
LINE
  8
PLANVIEW
 10
480.669679
 20
301.419877
 30
0.0
 11
480.669679
 21
261.129118
 31
0.0
  0
LINE
  8
PLANVIEW
 10
492.506728
 20
299.419877
 30
0.0
 11
481.669679
 21
299.419877
 31
0.0
  0
ARC
  8
PLANVIEW
 10
492.506728
 20
296.419877
 30
0.0
 40
3.0
 50
0.0
 51
90.0
  0
LINE
  8
PLANVIEW
  6
DASHED
 10
512.669679
 20
242.1575
 30
0.0
 11
512.669679
 21
295.116311
 31
0.0
  0
ARC
  8
FRONTVIEW
  6
CONTINUOUS
 10
72.556159
 20
99.310041
 30
0.0
 40
30.0
 50
113.578178
 51
66.421822
  0
ARC
  8
FRONTVIEW
  6
CONTINUOUS
 10
72.556159
 20
99.310041
 30
0.0
 40
33.0
 50
16.005184
 51
68.676314
  0
ARC
  8
FRONTVIEW
  6
CONTINUOUS
 10
72.556159
 20
99.310041
 30
0.0
 40
33.0
 50
111.323686
 51
343.994816
  0
ARC
  8
FRONTVIEW
  6
DASHED
 10
72.556159
 20
99.310041
 30
0.0
 40
33.0
 50
68.676314
 51
111.323686
  0
ARC
  8
FRONTVIEW
  6
DASHED
 10
72.556159
 20
99.310041
 30
0.0
 40
30.0
 50
66.421822
 51
113.578178
  0
LINE
  8
CAPTIONS
  6
DASHED
 10
512.669679
 20
218.176008
 30
0.0
 11
512.669679
 21
176.098473
 31
0.0
  0
ARC
  8
RIGHTSIDE
  6
CONTINUOUS
 10
292.903862
 20
135.996662
 30
0.0
 40
1.0
 50
324.173591
 51
90.0
  0
LINE
  8
RIGHTSIDE
 10
301.669679
 20
132.310041
 30
0.0
 11
299.669679
 21
132.310041
 31
0.0
  0
LINE
  8
RIGHTSIDE
  6
DASHED
 10
271.428622
 20
129.310041
 30
0.0
 11
142.669679
 21
129.310041
 31
0.0
  0
ARC
  8
RIGHTSIDE
  6
DASHED
 10
264.43604
 20
99.154658
 30
0.0
 40
32.766742
 50
58.537455
 51
312.068521
  0
ENDSEC
  0
EOF
