  0
SECTION
  2
HEADER
  9
$ACADVER
  1
AC1009
  9
$INSBASE
 10
0.0
 20
0.0
 30
0.0
  9
$EXTMIN
 10
30.564304
 20
0.765793
 30
0.0
  9
$EXTMAX
 10
629.512676
 20
456.599602
 30
0.0
  9
$LIMMIN
 10
0.0
 20
0.0
  9
$LIMMAX
 10
550.0
 20
500.0
  9
$ORTHOMODE
 70
     1
  9
$REGENMODE
 70
     1
  9
$FILLMODE
 70
     1
  9
$QTEXTMODE
 70
     0
  9
$MIRRTEXT
 70
     1
  9
$DRAGMODE
 70
     2
  9
$LTSCALE
 40
10.0
  9
$OSMODE
 70
     0
  9
$ATTMODE
 70
     1
  9
$TEXTSIZE
 40
5.5385
  9
$TRACEWID
 40
0.05
  9
$TEXTSTYLE
  7
ROMANT
  9
$CLAYER
  8
0
  9
$CELTYPE
  6
BYLAYER
  9
$CECOLOR
 62
   256
  9
$DIMSCALE
 40
1.0
  9
$DIMASZ
 40
5.0
  9
$DIMEXO
 40
0.0625
  9
$DIMDLI
 40
0.38
  9
$DIMRND
 40
0.0
  9
$DIMDLE
 40
0.0
  9
$DIMEXE
 40
0.18
  9
$DIMTP
 40
0.0
  9
$DIMTM
 40
0.0
  9
$DIMTXT
 40
4.0
  9
$DIMCEN
 40
0.09
  9
$DIMTSZ
 40
0.0
  9
$DIMTOL
 70
     0
  9
$DIMLIM
 70
     0
  9
$DIMTIH
 70
     1
  9
$DIMTOH
 70
     1
  9
$DIMSE1
 70
     0
  9
$DIMSE2
 70
     0
  9
$DIMTAD
 70
     0
  9
$DIMZIN
 70
     0
  9
$DIMBLK
  1

  9
$DIMASO
 70
     1
  9
$DIMSHO
 70
     0
  9
$DIMPOST
  1

  9
$DIMAPOST
  1

  9
$DIMALT
 70
     0
  9
$DIMALTD
 70
     2
  9
$DIMALTF
 40
25.4
  9
$DIMLFAC
 40
1.0
  9
$DIMTOFL
 70
     0
  9
$DIMTVP
 40
0.0
  9
$DIMTIX
 70
     0
  9
$DIMSOXD
 70
     0
  9
$DIMSAH
 70
     0
  9
$DIMBLK1
  1

  9
$DIMBLK2
  1

  9
$DIMSTYLE
  2
*UNNAMED
  9
$DIMCLRD
 70
     0
  9
$DIMCLRE
 70
     0
  9
$DIMCLRT
 70
     0
  9
$DIMTFAC
 40
1.0
  9
$DIMGAP
 40
0.09
  9
$LUNITS
 70
     2
  9
$LUPREC
 70
     4
  9
$AXISMODE
 70
     0
  9
$AXISUNIT
 10
0.0
 20
0.0
  9
$SKETCHINC
 40
0.1
  9
$FILLETRAD
 40
2.0
  9
$AUNITS
 70
     0
  9
$AUPREC
 70
     0
  9
$MENU
  1
acad
  9
$ELEVATION
 40
0.0
  9
$PELEVATION
 40
0.0
  9
$THICKNESS
 40
0.0
  9
$LIMCHECK
 70
     0
  9
$BLIPMODE
 70
     0
  9
$CHAMFERA
 40
0.0
  9
$CHAMFERB
 40
0.0
  9
$SKPOLY
 70
     0
  9
$TDCREATE
 40
2449723.628683912
  9
$TDUPDATE
 40
2449745.631568749
  9
$TDINDWG
 40
0.0253159722
  9
$TDUSRTIMER
 40
0.0253159722
  9
$USRTIMER
 70
     1
  9
$ANGBASE
 50
0.0
  9
$ANGDIR
 70
     0
  9
$PDMODE
 70
     0
  9
$PDSIZE
 40
0.0
  9
$PLINEWID
 40
0.0
  9
$COORDS
 70
     0
  9
$SPLFRAME
 70
     0
  9
$SPLINETYPE
 70
     6
  9
$SPLINESEGS
 70
     8
  9
$ATTDIA
 70
     1
  9
$ATTREQ
 70
     1
  9
$HANDLING
 70
     0
  9
$HANDSEED
  5
0
  9
$SURFTAB1
 70
     6
  9
$SURFTAB2
 70
     6
  9
$SURFTYPE
 70
     6
  9
$SURFU
 70
     6
  9
$SURFV
 70
     6
  9
$UCSNAME
  2

  9
$UCSORG
 10
0.0
 20
0.0
 30
0.0
  9
$UCSXDIR
 10
1.0
 20
0.0
 30
0.0
  9
$UCSYDIR
 10
0.0
 20
1.0
 30
0.0
  9
$PUCSNAME
  2

  9
$PUCSORG
 10
0.0
 20
0.0
 30
0.0
  9
$PUCSXDIR
 10
1.0
 20
0.0
 30
0.0
  9
$PUCSYDIR
 10
0.0
 20
1.0
 30
0.0
  9
$USERI1
 70
     0
  9
$USERI2
 70
     0
  9
$USERI3
 70
     0
  9
$USERI4
 70
     0
  9
$USERI5
 70
     0
  9
$USERR1
 40
0.0
  9
$USERR2
 40
0.0
  9
$USERR3
 40
0.0
  9
$USERR4
 40
0.0
  9
$USERR5
 40
0.0
  9
$WORLDVIEW
 70
     1
  9
$SHADEDGE
 70
     3
  9
$SHADEDIF
 70
    70
  9
$TILEMODE
 70
     1
  9
$MAXACTVP
 70
    16
  9
$PINSBASE
 10
0.0
 20
0.0
 30
0.0
  9
$PLIMCHECK
 70
     0
  9
$PEXTMIN
 10
1.000000E+20
 20
1.000000E+20
 30
1.000000E+20
  9
$PEXTMAX
 10
-1.000000E+20
 20
-1.000000E+20
 30
-1.000000E+20
  9
$PLIMMIN
 10
0.0
 20
0.0
  9
$PLIMMAX
 10
12.0
 20
9.0
  9
$UNITMODE
 70
     1
  9
$VISRETAIN
 70
     0
  0
ENDSEC
  0
SECTION
  2
TABLES
  0
TABLE
  2
VPORT
 70
     2
  0
VPORT
  2
*ACTIVE
 70
     0
 10
0.0
 20
0.0
 11
1.0
 21
1.0
 12
341.001083
 22
231.329772
 13
0.0
 23
0.0
 14
1.0
 24
1.0
 15
0.0
 25
0.0
 16
0.0
 26
0.0
 36
1.0
 17
0.0
 27
0.0
 37
0.0
 40
460.94173
 41
1.346968
 42
50.0
 43
0.0
 44
0.0
 50
0.0
 51
0.0
 71
     0
 72
   100
 73
     1
 74
     0
 75
     0
 76
     0
 77
     0
 78
     1
  0
ENDTAB
  0
TABLE
  2
LTYPE
 70
     3
  0
LTYPE
  2
CONTINUOUS
 70
    64
  3
Solid line
 72
    65
 73
     0
 40
0.0
  0
LTYPE
  2
DASHED
 70
    64
  3
__ __ __ __ __ __ __ __ __ __ __ __ __ __ __
 72
    65
 73
     2
 40
0.75
 49
0.5
 49
-0.25
  0
LTYPE
  2
CENTER
 70
    64
  3
____ _ ____ _ ____ _ ____ _ ____ _ ____ _ ____
 72
    65
 73
     4
 40
2.0
 49
1.25
 49
-0.25
 49
0.25
 49
-0.25
  0
ENDTAB
  0
TABLE
  2
LAYER
 70
     5
  0
LAYER
  2
0
 70
    64
 62
     7
  6
CONTINUOUS
  0
LAYER
  2
RIGHTSIDE
 70
    64
 62
     1
  6
CONTINUOUS
  0
LAYER
  2
PLANVIEW
 70
    64
 62
     2
  6
CONTINUOUS
  0
LAYER
  2
FRONTVIEW
 70
    64
 62
     3
  6
CONTINUOUS
  0
LAYER
  2
CAPTIONS
 70
    64
 62
     4
  6
CONTINUOUS
  0
ENDTAB
  0
TABLE
  2
STYLE
 70
     4
  0
STYLE
  2
STANDARD
 70
    64
 40
0.0
 41
1.0
 50
0.0
 71
     0
 42
5.5385
  3
txt
  4

  0
STYLE
  2
ROMANS
 70
    64
 40
0.0
 41
1.0
 50
0.0
 71
     0
 42
5.5385
  3
ROMANS
  4

  0
STYLE
  2
ROMANT
 70
    64
 40
0.0
 41
1.0
 50
0.0
 71
     0
 42
5.5385
  3
ROMANT
  4

  0
STYLE
  2
ROMAND
 70
    64
 40
0.0
 41
1.0
 50
0.0
 71
     0
 42
2.0
  3
ROMAND
  4

  0
ENDTAB
  0
TABLE
  2
VIEW
 70
     0
  0
ENDTAB
  0
TABLE
  2
UCS
 70
     0
  0
ENDTAB
  0
TABLE
  2
APPID
 70
     1
  0
APPID
  2
ACAD
 70
    64
  0
ENDTAB
  0
TABLE
  2
DIMSTYLE
 70
     0
  0
ENDTAB
  0
ENDSEC
  0
SECTION
  2
BLOCKS
  0
BLOCK
  8
0
  2
GETDAT
 70
    66
 10
0.0
 20
0.0
 30
0.0
  1
GETDAT
  3
GETDAT
  0
ATTDEF
  8
0
 10
0.0
 20
0.0
 30
0.0
 40
1.0
  1
DIMDIAG
  3
DRAWING NAME.(10 CHARS): 
  2
DWGNAM
 70
     1
  0
ATTDEF
  8
0
 10
0.0
 20
0.0
 30
0.0
 40
1.0
  1
B
  3
DRAWING SIZE...(1 CHAR): 
  2
DWGSIZ
 70
     1
  0
ATTDEF
  8
0
 10
0.0
 20
0.0
 30
0.0
 40
1.0
  1
00
  3
REVISION......(2 CHARS): 
  2
DWGREV
 70
     1
  0
ATTDEF
  8
0
 10
0.0
 20
0.0
 30
0.0
 40
1.0
  1
01
  3
SHEET NUMBER..(2 CHARS): 
  2
DWGSHT
 70
     1
  0
ATTDEF
  8
0
 10
0.0
 20
0.0
 30
0.0
 40
1.0
  1
01
  3
OF............(2 CHARS): 
  2
DWGOF
 70
     1
  0
ATTDEF
  8
0
 10
0.0
 20
0.0
 30
0.0
 40
1.0
  1
 
  3
DISTRIBUTION..(2 CHARS): 
  2
DWGDIST
 70
     1
  0
ATTDEF
  8
0
 10
0.0
 20
0.0
 30
0.0
 40
1.0
  1
01
  3
QUANTITY......(2 CHARS): 
  2
DWGQUAN
 70
     1
  0
ATTDEF
  8
0
 10
0.0
 20
0.0
 30
0.0
 40
1.0
  1
 
  3
DESCRIPTION..(31 CHARS): 
  2
DWGDESC
 70
     1
  0
ATTDEF
  8
0
 10
0.0
 20
0.0
 30
0.0
 40
1.0
  1
 
  3
YOUR NAME....(17 CHARS): 
  2
DRWN
 70
     1
  0
ATTDEF
  8
0
 10
0.0
 20
0.0
 30
0.0
 40
1.0
  1
10/14/92
  3
TODAY'S DATE..(8 CHARS): 
  2
DATE
 70
     1
  0
ATTDEF
  8
0
 10
0.0
 20
0.0
 30
0.0
 40
1.0
  1
01 
  3
FILE..........(3 CHARS): 
  2
FILE
 70
     1
  0
ENDBLK
  8
0
  0
ENDSEC
  0
SECTION
  2
ENTITIES
  0
LINE
  8
RIGHTSIDE
 10
473.512676
 20
68.916746
 30
0.0
 11
485.057271
 21
68.916746
 31
0.0
  0
LINE
  8
RIGHTSIDE
 10
302.512676
 20
66.866746
 30
0.0
 11
302.512676
 21
97.531006
 31
0.0
  0
LINE
  8
RIGHTSIDE
 10
302.512676
 20
150.866746
 30
0.0
 11
300.512676
 21
150.866746
 31
0.0
  0
LINE
  8
RIGHTSIDE
 10
301.512676
 20
150.866746
 30
0.0
 11
301.512676
 21
120.202485
 31
0.0
  0
LINE
  8
RIGHTSIDE
 10
300.512676
 20
148.866746
 30
0.0
 11
294.582441
 21
148.866746
 31
0.0
  0
LINE
  8
RIGHTSIDE
 10
472.012676
 20
53.04381
 30
0.0
 11
472.012676
 21
63.04381
 31
0.0
  0
LINE
  8
RIGHTSIDE
 10
300.512676
 20
150.866746
 30
0.0
 11
300.512676
 21
120.202485
 31
0.0
  0
LINE
  8
RIGHTSIDE
 10
322.012676
 20
159.721047
 30
0.0
 11
302.012676
 21
159.721047
 31
0.0
  0
LINE
  8
RIGHTSIDE
 10
322.012676
 20
160.221047
 30
0.0
 11
302.012676
 21
160.221047
 31
0.0
  0
LINE
  8
RIGHTSIDE
  6
DASHED
 10
159.512676
 20
148.566746
 30
0.0
 11
159.512676
 21
69.866746
 31
0.0
  0
LINE
  8
RIGHTSIDE
 10
490.057271
 20
73.916746
 30
0.0
 11
490.057271
 21
143.566746
 31
0.0
  0
LINE
  8
RIGHTSIDE
 10
300.512676
 20
97.531006
 30
0.0
 11
300.512676
 21
66.866746
 31
0.0
  0
LINE
  8
RIGHTSIDE
 10
302.512676
 20
120.202485
 30
0.0
 11
302.512676
 21
150.866746
 31
0.0
  0
LINE
  8
RIGHTSIDE
 10
331.968394
 20
88.566888
 30
0.0
 11
331.968394
 21
63.04381
 31
0.0
  0
LINE
  8
RIGHTSIDE
 10
326.968394
 20
88.566888
 30
0.0
 11
326.968394
 21
63.04381
 31
0.0
  0
LINE
  8
RIGHTSIDE
 10
300.512676
 20
66.866746
 30
0.0
 11
326.968394
 21
66.866746
 31
0.0
  0
CIRCLE
  8
RIGHTSIDE
 10
308.373403
 20
57.928322
 30
0.0
 40
2.5
  0
LINE
  8
RIGHTSIDE
 10
471.512676
 20
147.6714
 30
0.0
 11
471.512676
 21
144.47621
 31
0.0
  0
LINE
  8
RIGHTSIDE
 10
472.512676
 20
148.60767
 30
0.0
 11
472.512676
 21
66.539995
 31
0.0
  0
LINE
  8
RIGHTSIDE
 10
473.512676
 20
149.37073
 30
0.0
 11
473.512676
 21
66.539995
 31
0.0
  0
LINE
  8
RIGHTSIDE
 10
302.012676
 20
63.04381
 30
0.0
 11
302.012676
 21
53.04381
 31
0.0
  0
LINE
  8
PLANVIEW
  6
DASHED
 10
629.512676
 20
351.934126
 30
0.0
 11
629.512676
 21
275.524126
 31
0.0
  0
LINE
  8
PLANVIEW
 10
300.512676
 20
356.024126
 30
0.0
 11
300.512676
 21
272.197812
 31
0.0
  0
LINE
  8
PLANVIEW
  6
DASHED
 10
280.860394
 20
352.09014
 30
0.0
 11
159.512676
 21
352.09014
 31
0.0
  0
LINE
  8
PLANVIEW
  6
DASHED
 10
159.512676
 20
352.09014
 30
0.0
 11
159.512676
 21
275.513985
 31
0.0
  0
LINE
  8
PLANVIEW
 10
301.512676
 20
274.024126
 30
0.0
 11
301.512676
 21
272.161785
 31
0.0
  0
LINE
  8
PLANVIEW
 10
473.512676
 20
356.024126
 30
0.0
 11
300.512676
 21
356.024126
 31
0.0
  0
LINE
  8
FRONTVIEW
 10
51.253701
 20
53.04381
 30
0.0
 11
51.253701
 21
63.04381
 31
0.0
  0
LINE
  8
FRONTVIEW
 10
103.628701
 20
53.04381
 30
0.0
 11
103.628701
 21
63.04381
 31
0.0
  0
LINE
  8
FRONTVIEW
 10
45.253701
 20
56.04381
 30
0.0
 11
45.253701
 21
62.18791
 31
0.0
  0
LINE
  8
FRONTVIEW
 10
45.253701
 20
53.04381
 30
0.0
 11
50.053701
 21
53.04381
 31
0.0
  0
LINE
  8
FRONTVIEW
 10
45.253701
 20
53.04381
 30
0.0
 11
45.253701
 21
63.04381
 31
0.0
  0
LINE
  8
FRONTVIEW
 10
109.628701
 20
63.04381
 30
0.0
 11
109.628701
 21
53.04381
 31
0.0
  0
LINE
  8
PLANVIEW
 10
302.512676
 20
272.131451
 30
0.0
 11
302.512676
 21
310.901627
 31
0.0
  0
LINE
  8
FRONTVIEW
 10
103.628701
 20
53.04381
 30
0.0
 11
109.628701
 21
53.04381
 31
0.0
  0
TEXT
  8
PLANVIEW
 10
364.232007
 20
243.807295
 30
0.0
 40
6.48987
  1
Plan View
  7
ROMANS
 72
     4
 11
388.182717
 21
247.20675
 31
0.0
  0
TEXT
  8
FRONTVIEW
 10
48.740608
 20
36.228445
 30
0.0
 40
6.48987
  1
Front View
  7
ROMANS
 72
     4
 11
74.854609
 21
39.627901
 31
0.0
  0
TEXT
  8
RIGHTSIDE
 10
363.228519
 20
40.934258
 30
0.0
 40
6.48987
  1
Right Side
  7
ROMANS
 72
     4
 11
388.878958
 21
43.252069
 31
0.0
  0
LINE
  8
RIGHTSIDE
 10
472.012676
 20
63.04381
 30
0.0
 11
302.012676
 21
63.04381
 31
0.0
  0
LINE
  8
RIGHTSIDE
 10
331.968394
 20
66.866746
 30
0.0
 11
449.704258
 21
66.866746
 31
0.0
  0
LINE
  8
RIGHTSIDE
  6
DASHED
 10
159.512676
 20
69.866746
 30
0.0
 11
270.39348
 21
69.866746
 31
0.0
  0
LINE
  8
RIGHTSIDE
 10
454.804258
 20
63.04381
 30
0.0
 11
454.804258
 21
89.474153
 31
0.0
  0
LINE
  8
RIGHTSIDE
 10
449.704258
 20
63.04381
 30
0.0
 11
449.704258
 21
89.474153
 31
0.0
  0
LINE
  8
RIGHTSIDE
 10
454.804258
 20
66.539995
 30
0.0
 11
473.512676
 21
66.539995
 31
0.0
  0
LINE
  8
FRONTVIEW
 10
45.253701
 20
63.04381
 30
0.0
 11
51.253701
 21
63.04381
 31
0.0
  0
LINE
  8
FRONTVIEW
 10
103.628701
 20
63.04381
 30
0.0
 11
109.628701
 21
63.04381
 31
0.0
  0
LINE
  8
FRONTVIEW
  6
CONTINUOUS
 10
74.373079
 20
152.677573
 30
0.0
 11
74.373079
 21
156.203906
 31
0.0
  0
CIRCLE
  8
FRONTVIEW
 10
77.441201
 20
90.387299
 30
0.0
 40
11.372272
  0
CIRCLE
  8
FRONTVIEW
 10
77.441201
 20
90.387299
 30
0.0
 40
10.111178
  0
LINE
  8
PLANVIEW
  6
DASHED
 10
290.802116
 20
258.384112
 30
0.0
 11
220.981834
 21
258.384112
 31
0.0
  0
ARC
  8
PLANVIEW
  6
DASHED
 10
220.981834
 20
261.384112
 30
0.0
 40
3.0
 50
180.0
 51
270.0
  0
LINE
  8
PLANVIEW
  6
DASHED
 10
217.981834
 20
261.384112
 30
0.0
 11
217.981834
 21
269.286516
 31
0.0
  0
LINE
  8
PLANVIEW
  6
DASHED
 10
629.512676
 20
351.934126
 30
0.0
 11
489.965074
 21
351.934126
 31
0.0
  0
ARC
  8
PLANVIEW
  6
DASHED
 10
472.512676
 20
287.034126
 30
0.0
 40
70.30159
 50
52.291062
 51
84.910906
  0
LINE
  8
RIGHTSIDE
 10
294.271761
 20
156.04381
 30
0.0
 11
294.271761
 21
152.737263
 31
0.0
  0
LINE
  8
RIGHTSIDE
  6
DASHED
 10
629.512676
 20
148.566746
 30
0.0
 11
629.512676
 21
68.916746
 31
0.0
  0
LINE
  8
RIGHTSIDE
  6
DASHED
 10
491.973731
 20
68.916746
 30
0.0
 11
629.512676
 21
68.916746
 31
0.0
  0
LINE
  8
RIGHTSIDE
 10
288.304402
 20
101.759571
 30
0.0
 11
288.304402
 21
79.015027
 31
0.0
  0
LINE
  8
RIGHTSIDE
 10
288.304402
 20
79.015027
 30
0.0
 11
289.072988
 21
79.015027
 31
0.0
  0
LINE
  8
RIGHTSIDE
 10
288.304402
 20
101.759571
 30
0.0
 11
289.072988
 21
101.759571
 31
0.0
  0
LINE
  8
RIGHTSIDE
 10
298.846612
 20
120.202485
 30
0.0
 11
303.222121
 21
120.202485
 31
0.0
  0
LINE
  8
RIGHTSIDE
 10
304.222121
 20
119.202485
 30
0.0
 11
304.222121
 21
100.151351
 31
0.0
  0
LINE
  8
RIGHTSIDE
 10
293.516584
 20
100.151351
 30
0.0
 11
301.307271
 21
100.151351
 31
0.0
  0
LINE
  8
RIGHTSIDE
 10
298.846612
 20
97.531006
 30
0.0
 11
303.222121
 21
97.531006
 31
0.0
  0
LINE
  8
RIGHTSIDE
 10
304.222121
 20
98.531006
 30
0.0
 11
304.222121
 21
100.151351
 31
0.0
  0
LINE
  8
RIGHTSIDE
 10
302.307271
 20
101.151351
 30
0.0
 11
302.307271
 21
116.58214
 31
0.0
  0
LINE
  8
RIGHTSIDE
 10
301.512676
 20
66.866746
 30
0.0
 11
301.512676
 21
97.531006
 31
0.0
  0
LINE
  8
RIGHTSIDE
 10
294.072988
 20
68.866746
 30
0.0
 11
300.512676
 21
68.866746
 31
0.0
  0
LINE
  8
PLANVIEW
 10
296.015827
 20
267.490969
 30
0.0
 11
302.222121
 21
267.490969
 31
0.0
  0
LINE
  8
PLANVIEW
 10
298.085762
 20
272.197812
 30
0.0
 11
302.222121
 21
272.197812
 31
0.0
  0
LINE
  8
PLANVIEW
  6
DASHED
 10
212.512676
 20
270.286516
 30
0.0
 11
212.512676
 21
269.286516
 31
0.0
  0
LINE
  8
PLANVIEW
  6
DASHED
 10
212.512676
 20
269.286516
 30
0.0
 11
293.487835
 21
269.286516
 31
0.0
  0
LINE
  8
PLANVIEW
  6
DASHED
 10
212.512676
 20
270.286516
 30
0.0
 11
293.022802
 21
270.286516
 31
0.0
  0
ARC
  8
PLANVIEW
  6
DASHED
 10
290.802116
 20
261.384112
 30
0.0
 40
3.0
 50
270.0
 51
346.415193
  0
LINE
  8
RIGHTSIDE
 10
468.407019
 20
150.866746
 30
0.0
 11
467.642019
 21
150.866746
 31
0.0
  0
LINE
  8
RIGHTSIDE
 10
296.752701
 20
119.433563
 30
0.0
 11
294.271761
 21
152.737263
 31
0.0
  0
LINE
  8
RIGHTSIDE
 10
292.035644
 20
157.04381
 30
0.0
 11
293.271761
 21
157.04381
 31
0.0
  0
LINE
  8
RIGHTSIDE
 10
291.035644
 20
151.46663
 30
0.0
 11
291.035644
 21
156.04381
 31
0.0
  0
LINE
  8
RIGHTSIDE
 10
289.072988
 20
147.511856
 30
0.0
 11
289.072988
 21
73.866746
 31
0.0
  0
LINE
  8
RIGHTSIDE
 10
298.846612
 20
117.58214
 30
0.0
 11
298.846612
 21
120.202485
 31
0.0
  0
LINE
  8
RIGHTSIDE
 10
298.846612
 20
100.151351
 30
0.0
 11
298.846612
 21
97.531006
 31
0.0
  0
ARC
  8
RIGHTSIDE
 10
303.222121
 20
119.202485
 30
0.0
 40
1.0
 50
0.0
 51
90.0
  0
ARC
  8
RIGHTSIDE
 10
303.222121
 20
98.531006
 30
0.0
 40
1.0
 50
270.0
 51
0.0
  0
ARC
  8
RIGHTSIDE
 10
301.307271
 20
116.58214
 30
0.0
 40
1.0
 50
0.0
 51
90.0
  0
ARC
  8
RIGHTSIDE
 10
301.307271
 20
101.151351
 30
0.0
 40
1.0
 50
270.0
 51
0.0
  0
LINE
  8
RIGHTSIDE
 10
298.747174
 20
117.58214
 30
0.0
 11
301.307271
 21
117.58214
 31
0.0
  0
LINE
  8
RIGHTSIDE
 10
293.516584
 20
118.16293
 30
0.0
 11
293.516584
 21
100.151351
 31
0.0
  0
ARC
  8
RIGHTSIDE
 10
292.035644
 20
156.04381
 30
0.0
 40
1.0
 50
90.0
 51
180.0
  0
ARC
  8
RIGHTSIDE
 10
293.271761
 20
156.04381
 30
0.0
 40
1.0
 50
0.0
 51
90.0
  0
LINE
  8
RIGHTSIDE
 10
274.485255
 20
151.12712
 30
0.0
 11
285.053369
 21
151.12712
 31
0.0
  0
LINE
  8
RIGHTSIDE
 10
273.485255
 20
150.12712
 30
0.0
 11
273.485255
 21
143.939738
 31
0.0
  0
ARC
  8
RIGHTSIDE
 10
274.485255
 20
150.12712
 30
0.0
 40
1.0
 50
90.0
 51
180.0
  0
ARC
  8
RIGHTSIDE
 10
274.485255
 20
143.939738
 30
0.0
 40
1.0
 50
180.0
 51
270.0
  0
LINE
  8
RIGHTSIDE
 10
269.512676
 20
112.023142
 30
0.0
 11
269.512676
 21
134.342986
 31
0.0
  0
LINE
  8
RIGHTSIDE
 10
285.053369
 20
151.12712
 30
0.0
 11
289.072988
 21
147.511856
 31
0.0
  0
LINE
  8
RIGHTSIDE
 10
282.873016
 20
142.939738
 30
0.0
 11
285.923156
 21
116.38546
 31
0.0
  0
LINE
  8
RIGHTSIDE
 10
269.512676
 20
112.023142
 30
0.0
 11
273.534258
 21
112.023142
 31
0.0
  0
LINE
  8
RIGHTSIDE
 10
273.534258
 20
134.799201
 30
0.0
 11
273.534258
 21
112.023142
 31
0.0
  0
LINE
  8
RIGHTSIDE
 10
275.534258
 20
125.746235
 30
0.0
 11
284.847937
 21
125.746235
 31
0.0
  0
LINE
  8
RIGHTSIDE
 10
275.534258
 20
136.799201
 30
0.0
 11
283.578345
 21
136.799201
 31
0.0
  0
LINE
  8
RIGHTSIDE
 10
269.512676
 20
134.342986
 30
0.0
 11
273.534258
 21
134.342986
 31
0.0
  0
LINE
  8
RIGHTSIDE
 10
287.896619
 20
114.710185
 30
0.0
 11
289.072988
 21
114.710185
 31
0.0
  0
ARC
  8
RIGHTSIDE
 10
275.534258
 20
134.799201
 30
0.0
 40
2.0
 50
90.0
 51
180.0
  0
ARC
  8
RIGHTSIDE
 10
287.896619
 20
116.710185
 30
0.0
 40
2.0
 50
189.344049
 51
270.0
  0
ARC
  8
RIGHTSIDE
  6
DASHED
 10
257.795578
 20
108.866746
 30
0.0
 40
44.119333
 50
73.308517
 51
310.904256
  0
LINE
  8
RIGHTSIDE
 10
490.057271
 20
91.556631
 30
0.0
 11
494.930339
 21
91.556631
 31
0.0
  0
LINE
  8
RIGHTSIDE
 10
496.512676
 20
93.139137
 30
0.0
 11
496.512676
 21
87.635461
 31
0.0
  0
LINE
  8
RIGHTSIDE
 10
494.930339
 20
93.139137
 30
0.0
 11
494.930339
 21
87.635461
 31
0.0
  0
LINE
  8
RIGHTSIDE
 10
494.930339
 20
93.139137
 30
0.0
 11
496.512676
 21
93.139137
 31
0.0
  0
LINE
  8
RIGHTSIDE
 10
494.930339
 20
87.635461
 30
0.0
 11
496.512676
 21
87.635461
 31
0.0
  0
LINE
  8
RIGHTSIDE
 10
490.057271
 20
89.217967
 30
0.0
 11
494.930339
 21
89.217967
 31
0.0
  0
ARC
  8
RIGHTSIDE
  6
DASHED
 10
473.143063
 20
109.538465
 30
0.0
 40
42.899646
 50
291.829077
 51
73.575015
  0
LINE
  8
RIGHTSIDE
  6
DASHED
 10
493.665213
 20
148.566746
 30
0.0
 11
629.512676
 21
148.566746
 31
0.0
  0
LINE
  8
FRONTVIEW
 10
117.785832
 20
97.191528
 30
0.0
 11
126.450166
 21
97.191528
 31
0.0
  0
LINE
  8
FRONTVIEW
 10
118.400753
 20
99.576152
 30
0.0
 11
126.450166
 21
99.576152
 31
0.0
  0
LINE
  8
FRONTVIEW
 10
88.53693
 20
160.221047
 30
0.0
 11
88.53693
 21
158.947915
 31
0.0
  0
LINE
  8
FRONTVIEW
 10
126.450166
 20
121.622589
 30
0.0
 11
126.450166
 21
97.191528
 31
0.0
  0
LINE
  8
FRONTVIEW
 10
74.373079
 20
156.203906
 30
0.0
 11
88.466297
 21
156.203906
 31
0.0
  0
LINE
  8
FRONTVIEW
 10
74.373079
 20
152.677573
 30
0.0
 11
83.441201
 21
152.677573
 31
0.0
  0
LINE
  8
FRONTVIEW
 10
88.53693
 20
160.221047
 30
0.0
 11
66.345472
 21
160.221047
 31
0.0
  0
LINE
  8
FRONTVIEW
 10
66.345472
 20
160.221047
 30
0.0
 11
66.345472
 21
158.947915
 31
0.0
  0
LINE
  8
FRONTVIEW
 10
66.345472
 20
158.947915
 30
0.0
 11
88.53693
 21
158.947915
 31
0.0
  0
LINE
  8
FRONTVIEW
 10
63.887434
 20
143.930159
 30
0.0
 11
90.974973
 21
143.930159
 31
0.0
  0
ARC
  8
FRONTVIEW
 10
77.441201
 20
131.736607
 30
0.0
 40
5.217013
 50
313.305006
 51
226.694994
  0
ARC
  8
FRONTVIEW
 10
77.441201
 20
131.736607
 30
0.0
 40
2.832223
 50
6.954005
 51
173.045995
  0
ARC
  8
FRONTVIEW
 10
77.441201
 20
117.460832
 30
0.0
 40
5.43769
 50
173.045995
 51
6.954005
  0
LINE
  8
FRONTVIEW
 10
80.252589
 20
132.079511
 30
0.0
 11
82.838889
 21
118.119187
 31
0.0
  0
LINE
  8
FRONTVIEW
 10
72.043512
 20
118.119187
 30
0.0
 11
74.629813
 21
132.079511
 31
0.0
  0
LINE
  8
FRONTVIEW
 10
77.067158
 20
157.04381
 30
0.0
 11
77.815243
 21
157.04381
 31
0.0
  0
ARC
  8
FRONTVIEW
 10
77.514026
 20
156.04381
 30
0.0
 40
1.0
 50
9.212473
 51
90.0
  0
LINE
  8
FRONTVIEW
 10
68.480673
 20
158.947915
 30
0.0
 11
66.156215
 21
151.189739
 31
0.0
  0
LINE
  8
FRONTVIEW
 10
86.401728
 20
158.947915
 30
0.0
 11
87.223874
 21
156.203906
 31
0.0
  0
LINE
  8
FRONTVIEW
 10
88.42462
 20
152.196253
 30
0.0
 11
88.726186
 21
151.189739
 31
0.0
  0
LINE
  8
RIGHTSIDE
 10
302.012676
 20
53.04381
 30
0.0
 11
472.012676
 21
53.04381
 31
0.0
  0
LINE
  8
FRONTVIEW
 10
109.628701
 20
63.04381
 30
0.0
 11
109.628701
 21
62.219961
 31
0.0
  0
LINE
  8
FRONTVIEW
 10
39.871357
 20
90.091581
 30
0.0
 11
45.253701
 21
63.04381
 31
0.0
  0
LINE
  8
FRONTVIEW
 10
56.800564
 20
72.288554
 30
0.0
 11
51.253701
 21
63.04381
 31
0.0
  0
LINE
  8
FRONTVIEW
 10
120.436971
 20
118.61669
 30
0.0
 11
120.436971
 21
99.576152
 31
0.0
  0
ARC
  8
FRONTVIEW
 10
82.245271
 20
114.256381
 30
0.0
 40
38.4398
 50
6.513202
 51
88.21714
  0
ARC
  8
FRONTVIEW
 10
81.74963
 20
113.133993
 30
0.0
 40
45.499386
 50
10.752393
 51
50.229061
  0
LINE
  8
RIGHTSIDE
 10
449.704258
 20
89.474153
 30
0.0
 11
454.804258
 21
89.474153
 31
0.0
  0
LINE
  8
RIGHTSIDE
 10
344.364104
 20
150.866746
 30
0.0
 11
321.430681
 21
150.866746
 31
0.0
  0
LINE
  8
PLANVIEW
 10
302.804582
 20
272.024126
 30
0.0
 11
344.113335
 21
272.024126
 31
0.0
  0
LINE
  8
PLANVIEW
 10
301.512676
 20
356.024126
 30
0.0
 11
301.512676
 21
272.161785
 31
0.0
  0
POLYLINE
  8
CAPTIONS
 66
     1
 10
0.0
 20
0.0
 30
0.0
 70
     1
 40
0.5
 41
0.5
  0
VERTEX
  8
CAPTIONS
 10
493.800065
 20
181.567009
 30
0.0
 42
1.0
  0
VERTEX
  8
CAPTIONS
 10
494.300065
 20
181.567009
 30
0.0
 42
1.0
  0
SEQEND
  8
CAPTIONS
  0
CIRCLE
  8
CAPTIONS
 10
494.050065
 20
181.567009
 30
0.0
 40
2.799891
  0
TEXT
  8
CAPTIONS
 10
498.967168
 20
164.303166
 30
0.0
 40
4.597
  1
jurisdictional requirements.
  7
ROMANS
  0
TEXT
  8
CAPTIONS
 10
498.967168
 20
171.745928
 30
0.0
 40
4.597
  1
clearance consult local
  7
ROMANS
  0
TEXT
  8
CAPTIONS
 10
498.967168
 20
179.18869
 30
0.0
 40
4.597
  1
For minimum aisle 
  7
ROMANS
  0
TEXT
  8
CAPTIONS
 10
325.40674
 20
434.142522
 30
0.0
 40
5.0
  1
CB 300 HP 
  7
ROMAND
  0
ARC
  8
CAPTIONS
 10
348.780194
 20
6.167753
 30
0.0
 40
13.097472
 50
73.493764
 51
74.4082
  0
ARC
  8
CAPTIONS
 10
349.708182
 20
9.299442
 30
0.0
 40
9.831184
 50
54.419527
 51
73.493591
  0
ARC
  8
CAPTIONS
 10
351.127238
 20
11.282981
 30
0.0
 40
7.392302
 50
30.070114
 51
54.419544
  0
ARC
  8
CAPTIONS
 10
353.296452
 20
12.538916
 30
0.0
 40
4.885738
 50
359.999979
 51
30.070151
  0
ARC
  8
CAPTIONS
 10
354.299664
 20
12.205672
 30
0.0
 40
3.896801
 50
329.929866
 51
4.905749
  0
ARC
  8
CAPTIONS
 10
350.824842
 20
14.217532
 30
0.0
 40
7.912018
 50
305.580464
 51
329.929893
  0
ARC
  8
CAPTIONS
 10
349.708182
 20
15.778386
 30
0.0
 40
9.831184
 50
286.506409
 51
305.580473
  0
ARC
  8
CAPTIONS
 10
348.780207
 20
18.906541
 30
0.0
 40
13.097364
 50
270.000045
 51
286.506319
  0
ARC
  8
CAPTIONS
 10
346.433222
 20
13.794873
 30
0.0
 40
7.392338
 50
210.070176
 51
227.741303
  0
ARC
  8
CAPTIONS
 10
344.263979
 20
12.538912
 30
0.0
 40
4.885736
 50
179.999984
 51
210.070156
  0
ARC
  8
CAPTIONS
 10
344.263981
 20
12.538916
 30
0.0
 40
4.885738
 50
149.929849
 51
180.000021
  0
ARC
  8
CAPTIONS
 10
346.433196
 20
11.282979
 30
0.0
 40
7.392304
 50
125.580444
 51
149.929874
  0
ARC
  8
CAPTIONS
 10
347.852251
 20
9.299442
 30
0.0
 40
9.831184
 50
106.506409
 51
125.580473
  0
ARC
  8
CAPTIONS
 10
348.780236
 20
6.167832
 30
0.0
 40
13.097395
 50
94.417361
 51
106.506318
  0
ARC
  8
CAPTIONS
 10
348.780227
 20
18.906541
 30
0.0
 40
13.097364
 50
253.493681
 51
269.999955
  0
ARC
  8
CAPTIONS
 10
347.852208
 20
15.77487
 30
0.0
 40
9.831085
 50
251.627947
 51
253.493685
  0
ARC
  8
CAPTIONS
 10
349.413215
 20
23.545419
 30
0.0
 40
0.723632
 50
26.058138
 51
90.000027
  0
ARC
  8
CAPTIONS
 10
338.787566
 20
18.349559
 30
0.0
 40
12.551623
 50
19.796937
 51
26.058266
  0
ARC
  8
CAPTIONS
 10
381.619418
 20
13.97845
 30
0.0
 40
34.57041
 50
168.549831
 51
171.020329
  0
ARC
  8
CAPTIONS
 10
360.039058
 20
18.349486
 30
0.0
 40
12.551829
 50
153.941824
 51
168.549851
  0
ARC
  8
CAPTIONS
 10
349.413215
 20
23.545418
 30
0.0
 40
0.723632
 50
89.999937
 51
153.941826
  0
ARC
  8
CAPTIONS
 10
321.6807
 20
10.243388
 30
0.0
 40
30.005881
 50
348.549808
 51
352.045725
  0
ARC
  8
CAPTIONS
 10
338.787376
 20
6.778475
 30
0.0
 40
12.551828
 50
333.941804
 51
348.54983
  0
ARC
  8
CAPTIONS
 10
349.413215
 20
1.582538
 30
0.0
 40
0.723632
 50
270.00003
 51
333.941919
  0
ARC
  8
CAPTIONS
 10
349.413215
 20
1.582539
 30
0.0
 40
0.723632
 50
206.058117
 51
270.000006
  0
ARC
  8
CAPTIONS
 10
360.039055
 20
6.778471
 30
0.0
 40
12.551827
 50
191.450154
 51
206.058181
  0
ARC
  8
CAPTIONS
 10
377.147337
 20
10.243656
 30
0.0
 40
30.007509
 50
188.358819
 51
191.450083
  0
ARC
  8
CAPTIONS
 10
321.755666
 20
-30.314169
 30
0.0
 40
52.738673
 50
47.178359
 51
48.173695
  0
ARC
  8
CAPTIONS
 10
344.982255
 20
-5.250729
 30
0.0
 40
18.567771
 50
35.590662
 51
47.17836
  0
ARC
  8
CAPTIONS
 10
359.610278
 20
5.214874
 30
0.0
 40
0.579453
 50
325.888644
 51
35.590677
  0
ARC
  8
CAPTIONS
 10
370.943074
 20
50.243774
 30
0.0
 40
45.643056
 50
227.178319
 51
228.469064
  0
ARC
  8
CAPTIONS
 10
352.539477
 20
30.3848
 30
0.0
 40
18.567768
 50
215.590671
 51
227.178369
  0
ARC
  8
CAPTIONS
 10
337.911459
 20
19.91577
 30
0.0
 40
0.579453
 50
145.888644
 51
215.590677
  0
ARC
  8
CAPTIONS
 10
337.91146
 20
19.91577
 30
0.0
 40
0.579454
 50
76.186623
 51
145.888656
  0
ARC
  8
CAPTIONS
 10
333.616574
 20
2.447705
 30
0.0
 40
18.567765
 50
64.598944
 51
76.186642
  0
ARC
  8
CAPTIONS
 10
322.00333
 20
-22.008714
 30
0.0
 40
45.64144
 50
61.736217
 51
64.599024
  0
ARC
  8
CAPTIONS
 10
359.610277
 20
5.214874
 30
0.0
 40
0.579454
 50
256.186623
 51
325.888656
  0
ARC
  8
CAPTIONS
 10
363.905163
 20
22.682939
 30
0.0
 40
18.567765
 50
244.598944
 51
256.186642
  0
ARC
  8
CAPTIONS
 10
375.519299
 20
47.144535
 30
0.0
 40
45.643404
 50
241.807185
 51
244.598955
  0
ARC
  8
CAPTIONS
 10
337.984105
 20
5.178251
 30
0.0
 40
0.510671
 50
142.874757
 51
214.376124
  0
ARC
  8
CAPTIONS
 10
353.840194
 20
-6.821199
 30
0.0
 40
20.397466
 50
132.266064
 51
142.874701
  0
ARC
  8
CAPTIONS
 10
374.029484
 20
-29.035402
 30
0.0
 40
50.415431
 50
131.286278
 51
132.26603
  0
ARC
  8
CAPTIONS
 10
315.642841
 20
58.228002
 30
0.0
 40
58.293083
 50
296.485995
 51
298.153044
  0
ARC
  8
CAPTIONS
 10
332.543494
 20
24.306355
 30
0.0
 40
20.397466
 50
285.877352
 51
296.485989
  0
ARC
  8
CAPTIONS
 10
337.984105
 20
5.17825
 30
0.0
 40
0.51067
 50
214.375979
 51
285.877346
  0
ARC
  8
CAPTIONS
 10
378.629236
 20
-25.893361
 30
0.0
 40
50.419304
 50
116.486045
 51
119.066308
  0
ARC
  8
CAPTIONS
 10
365.240089
 20
0.977468
 30
0.0
 40
20.397468
 50
105.877365
 51
116.486002
  0
ARC
  8
CAPTIONS
 10
359.799474
 20
20.105573
 30
0.0
 40
0.510671
 50
34.376009
 51
105.877376
  0
ARC
  8
CAPTIONS
 10
359.799474
 20
20.105573
 30
0.0
 40
0.510671
 50
322.87467
 51
34.376037
  0
ARC
  8
CAPTIONS
 10
343.943384
 20
32.108448
 30
0.0
 40
20.397466
 50
312.266064
 51
322.874701
  0
ARC
  8
CAPTIONS
 10
323.75011
 20
54.327035
 30
0.0
 40
50.421355
 50
310.99866
 51
312.26603
  0
ARC
  8
CAPTIONS
 10
333.620744
 20
12.605549
 30
0.0
 40
0.556231
 50
107.770486
 51
179.999953
  0
ARC
  8
CAPTIONS
 10
340.90189
 20
-10.112786
 30
0.0
 40
24.41284
 50
97.562078
 51
107.770471
  0
ARC
  8
CAPTIONS
 10
345.644883
 20
-45.840428
 30
0.0
 40
60.453934
 50
95.609002
 51
97.562053
  0
ARC
  8
CAPTIONS
 10
346.890078
 20
80.431061
 30
0.0
 40
69.915761
 50
262.437931
 51
263.989935
  0
ARC
  8
CAPTIONS
 10
340.90189
 20
35.323884
 30
0.0
 40
24.41284
 50
252.229529
 51
262.437922
  0
ARC
  8
CAPTIONS
 10
333.620745
 20
12.60555
 30
0.0
 40
0.556232
 50
180.000001
 51
252.229468
  0
ARC
  8
CAPTIONS
 10
352.063194
 20
-45.840088
 30
0.0
 40
60.453592
 50
82.437943
 51
84.316515
  0
ARC
  8
CAPTIONS
 10
356.806146
 20
-10.112781
 30
0.0
 40
24.412836
 50
72.229526
 51
82.437919
  0
ARC
  8
CAPTIONS
 10
364.087292
 20
12.605549
 30
0.0
 40
0.556231
 50
0.000047
 51
72.229514
  0
ARC
  8
CAPTIONS
 10
364.087291
 20
12.60555
 30
0.0
 40
0.556232
 50
287.770532
 51
359.999999
  0
ARC
  8
CAPTIONS
 10
356.806146
 20
35.32388
 30
0.0
 40
24.412836
 50
277.562081
 51
287.770474
  0
ARC
  8
CAPTIONS
 10
352.063236
 20
71.050968
 30
0.0
 40
60.45337
 50
275.76689
 51
277.562045
  0
TEXT
  8
CAPTIONS
 10
240.522949
 20
447.599602
 30
0.0
 40
9.0
  1
Cleaver-Brooks Layout Guide
  7
ROMAND
  0
LINE
  8
CAPTIONS
 10
348.167374
 20
6.695798
 30
0.0
 11
347.962737
 21
5.843836
 31
0.0
  0
LINE
  8
CAPTIONS
 10
350.124774
 20
7.543712
 30
0.0
 11
349.786678
 21
5.787475
 31
0.0
  0
LINE
  8
CAPTIONS
 10
345.720623
 20
6.531384
 30
0.0
 11
345.658343
 21
6.187609
 31
0.0
  0
LINE
  8
CAPTIONS
 10
348.443189
 20
6.796377
 30
0.0
 11
345.720623
 21
6.53481
 31
0.0
  0
LINE
  8
CAPTIONS
 10
350.018006
 20
7.543712
 30
0.0
 11
348.443189
 21
6.796377
 31
0.0
  0
LINE
  8
CAPTIONS
 10
351.672568
 20
8.500301
 30
0.0
 11
350.018006
 21
7.543712
 31
0.0
  0
LINE
  8
CAPTIONS
 10
351.672568
 20
8.500301
 30
0.0
 11
356.33507
 21
8.500301
 31
0.0
  0
LINE
  8
CAPTIONS
 10
348.203988
 20
12.491445
 30
0.0
 11
339.394663
 21
12.491445
 31
0.0
  0
LINE
  8
CAPTIONS
 10
348.011955
 20
10.684829
 30
0.0
 11
339.741656
 21
10.684829
 31
0.0
  0
LINE
  8
CAPTIONS
 10
341.983769
 20
10.6601
 30
0.0
 11
342.553195
 21
8.642294
 31
0.0
  0
LINE
  8
CAPTIONS
 10
341.610084
 20
12.491071
 30
0.0
 11
341.983769
 21
10.6601
 31
0.0
  0
LINE
  8
CAPTIONS
 10
342.054948
 20
14.426668
 30
0.0
 11
341.610084
 21
12.491071
 31
0.0
  0
LINE
  8
CAPTIONS
 10
343.06034
 20
16.870454
 30
0.0
 11
342.054948
 21
14.426668
 31
0.0
  0
LINE
  8
CAPTIONS
 10
345.833931
 20
18.929535
 30
0.0
 11
343.06034
 21
16.870454
 31
0.0
  0
LINE
  8
CAPTIONS
 10
344.261471
 20
10.6601
 30
0.0
 11
344.733026
 21
9.225216
 31
0.0
  0
LINE
  8
CAPTIONS
 10
344.012348
 20
12.491071
 30
0.0
 11
344.261471
 21
10.6601
 31
0.0
  0
LINE
  8
CAPTIONS
 10
344.29706
 20
14.426668
 30
0.0
 11
344.012348
 21
12.491071
 31
0.0
  0
LINE
  8
CAPTIONS
 10
344.830897
 20
16.870454
 30
0.0
 11
344.29706
 21
14.426668
 31
0.0
  0
LINE
  8
CAPTIONS
 10
346.474136
 20
19.060608
 30
0.0
 11
344.830897
 21
16.870454
 31
0.0
  0
LINE
  8
CAPTIONS
 10
346.476892
 20
12.491071
 30
0.0
 11
346.788297
 21
9.920238
 31
0.0
  0
LINE
  8
CAPTIONS
 10
346.906024
 20
16.644668
 30
0.0
 11
346.476892
 21
12.491071
 31
0.0
  0
LINE
  8
CAPTIONS
 10
347.927159
 20
14.426671
 30
0.0
 11
339.777246
 21
14.426671
 31
0.0
  0
LINE
  8
CAPTIONS
 10
346.800761
 20
16.879288
 30
0.0
 11
341.603343
 21
16.879288
 31
0.0
  0
LINE
  8
CAPTIONS
 10
353.6303
 20
10.540526
 30
0.0
 11
357.812018
 21
10.540526
 31
0.0
  0
LINE
  8
CAPTIONS
 10
351.770769
 20
9.344789
 30
0.0
 11
353.6303
 21
10.540526
 31
0.0
  0
LINE
  8
CAPTIONS
 10
351.397084
 20
6.131249
 30
0.0
 11
351.770769
 21
9.344789
 31
0.0
  0
LINE
  8
CAPTIONS
 10
351.342847
 20
12.811007
 30
0.0
 11
353.876496
 21
12.467808
 31
0.0
  0
LINE
  8
CAPTIONS
 10
353.114258
 20
8.522721
 30
0.0
 11
352.527037
 21
6.347977
 31
0.0
  0
LINE
  8
CAPTIONS
 10
355.44827
 20
8.568404
 30
0.0
 11
355.000479
 21
7.491399
 31
0.0
  0
LINE
  8
CAPTIONS
 10
355.982107
 20
10.698308
 30
0.0
 11
355.44827
 21
8.568404
 31
0.0
  0
LINE
  8
CAPTIONS
 10
356.213435
 20
12.536753
 30
0.0
 11
355.982107
 21
10.698308
 31
0.0
  0
LINE
  8
CAPTIONS
 10
355.29711
 20
16.769478
 30
0.0
 11
355.027172
 21
17.520635
 31
0.0
  0
LINE
  8
CAPTIONS
 10
355.29711
 20
16.769478
 30
0.0
 11
355.916899
 21
14.374355
 31
0.0
  0
LINE
  8
CAPTIONS
 10
353.897218
 20
12.46865
 30
0.0
 11
358.167909
 21
12.46865
 31
0.0
  0
LINE
  8
CAPTIONS
 10
352.464756
 20
16.803194
 30
0.0
 11
355.988077
 21
16.803194
 31
0.0
  0
LINE
  8
CAPTIONS
 10
353.755967
 20
14.41949
 30
0.0
 11
353.876496
 21
12.467808
 31
0.0
  0
LINE
  8
CAPTIONS
 10
353.136179
 20
16.814613
 30
0.0
 11
353.755967
 21
14.41949
 31
0.0
  0
LINE
  8
CAPTIONS
 10
353.648094
 20
10.652626
 30
0.0
 11
353.114258
 21
8.522721
 31
0.0
  0
LINE
  8
CAPTIONS
 10
353.879423
 20
12.491071
 30
0.0
 11
353.648094
 21
10.652626
 31
0.0
  0
LINE
  8
CAPTIONS
 10
355.916899
 20
14.374355
 30
0.0
 11
356.210509
 21
12.513491
 31
0.0
  0
LINE
  8
CAPTIONS
 10
353.14095
 20
16.803194
 30
0.0
 11
352.313503
 21
18.783631
 31
0.0
  0
LINE
  8
CAPTIONS
 10
357.805475
 20
14.420177
 30
0.0
 11
352.019894
 21
14.419195
 31
0.0
  0
LINE
  8
CAPTIONS
 10
348.638009
 20
20.066821
 30
0.0
 11
348.934677
 21
17.601764
 31
0.0
  0
LINE
  8
CAPTIONS
 10
350.539586
 20
20.960936
 30
0.0
 11
350.801428
 21
19.308223
 31
0.0
  0
LINE
  8
CAPTIONS
 10
349.846609
 20
18.945432
 30
0.0
 11
349.6728
 21
16.46502
 31
0.0
  0
LINE
  8
CAPTIONS
 10
350.063305
 20
17.343779
 30
0.0
 11
349.846609
 21
18.945432
 31
0.0
  0
LINE
  8
CAPTIONS
 10
350.106193
 20
19.308223
 30
0.0
 11
350.063305
 21
17.343779
 31
0.0
  0
LINE
  8
CAPTIONS
 10
350.365777
 20
18.12042
 30
0.0
 11
350.106193
 21
19.308223
 31
0.0
  0
ARC
  8
CAPTIONS
 10
355.287407
 20
19.309437
 30
0.0
 40
5.063221
 50
160.56057
 51
193.581845
  0
LINE
  8
CAPTIONS
 10
349.769862
 20
19.688482
 30
0.0
 11
350.052825
 21
23.98496
 31
0.0
  0
LINE
  8
CAPTIONS
 10
349.558002
 20
23.732734
 30
0.0
 11
349.769862
 21
19.688482
 31
0.0
  0
LINE
  8
CAPTIONS
 10
349.344691
 20
20.825226
 30
0.0
 11
349.558002
 21
23.732734
 31
0.0
  0
LINE
  8
CAPTIONS
 10
348.743939
 20
22.848216
 30
0.0
 11
349.344691
 21
20.825226
 31
0.0
  0
LINE
  8
CAPTIONS
 10
348.638009
 20
20.066821
 30
0.0
 11
348.743939
 21
22.848216
 31
0.0
  0
LINE
  8
CAPTIONS
 10
348.495802
 20
21.583631
 30
0.0
 11
348.638009
 21
20.066821
 31
0.0
  0
LINE
  8
CAPTIONS
 10
348.283942
 20
19.603831
 30
0.0
 11
348.495802
 21
21.583631
 31
0.0
  0
LINE
  8
CAPTIONS
 10
348.141735
 20
21.077452
 30
0.0
 11
348.283942
 21
19.603831
 31
0.0
  0
LINE
  8
CAPTIONS
 10
347.768805
 20
19.282502
 30
0.0
 11
348.141735
 21
21.077452
 31
0.0
  0
ARC
  8
CAPTIONS
 10
355.684711
 20
23.320677
 30
0.0
 40
5.670927
 50
173.273027
 51
204.21668
  0
ARC
  8
CAPTIONS
 10
352.282303
 20
21.632057
 30
0.0
 40
1.880825
 50
118.145776
 51
199.813636
  0
LINE
  8
CAPTIONS
 10
345.198919
 20
7.448615
 30
0.0
 11
345.180055
 21
7.849412
 31
0.0
  0
LINE
  8
CAPTIONS
 10
345.609578
 20
6.913068
 30
0.0
 11
345.384659
 21
7.491805
 31
0.0
  0
LINE
  8
CAPTIONS
 10
345.011728
 20
9.285028
 30
0.0
 11
341.495729
 21
8.383233
 31
0.0
  0
LINE
  8
CAPTIONS
 10
347.613538
 20
17.124761
 30
0.0
 11
347.768805
 21
19.282502
 31
0.0
  0
LINE
  8
CAPTIONS
 10
347.407483
 20
18.790143
 30
0.0
 11
347.613538
 21
17.124761
 31
0.0
  0
LINE
  8
CAPTIONS
 10
347.147736
 20
16.817253
 30
0.0
 11
347.407483
 21
18.790143
 31
0.0
  0
LINE
  8
CAPTIONS
 10
346.99247
 20
17.803698
 30
0.0
 11
347.147736
 21
16.817253
 31
0.0
  0
LINE
  8
CAPTIONS
 10
346.786414
 20
16.817253
 30
0.0
 11
346.99247
 21
17.803698
 31
0.0
  0
ARC
  8
CAPTIONS
 10
353.257864
 20
22.165683
 30
0.0
 40
2.176029
 50
148.875368
 51
216.031052
  0
ARC
  8
CAPTIONS
 10
340.58021
 20
12.388296
 30
0.0
 40
7.624476
 50
344.447646
 51
35.512937
  0
ARC
  8
CAPTIONS
 10
344.294246
 20
16.985378
 30
0.0
 40
8.191957
 50
329.36484
 51
28.431967
  0
LINE
  8
CAPTIONS
 10
346.526669
 20
9.886223
 30
0.0
 11
345.011728
 21
9.285028
 31
0.0
  0
LINE
  8
CAPTIONS
 10
347.458271
 20
10.117718
 30
0.0
 11
346.526669
 21
9.886223
 31
0.0
  0
ARC
  8
CAPTIONS
 10
347.68219
 20
9.81149
 30
0.0
 40
0.379362
 50
295.777135
 51
126.174908
  0
LINE
  8
CAPTIONS
 10
345.982509
 20
9.008615
 30
0.0
 11
347.847163
 21
9.469878
 31
0.0
  0
ARC
  8
CAPTIONS
 10
347.373428
 20
12.80135
 30
0.0
 40
4.039739
 50
249.86037
 51
306.718536
  0
LINE
  8
CAPTIONS
 10
349.478192
 20
11.643166
 30
0.0
 11
349.788726
 21
9.563167
 31
0.0
  0
LINE
  8
CAPTIONS
 10
349.827906
 20
11.828017
 30
0.0
 11
349.478192
 21
11.643166
 31
0.0
  0
LINE
  8
CAPTIONS
 10
350.138439
 20
11.689811
 30
0.0
 11
349.827906
 21
11.828017
 31
0.0
  0
LINE
  8
CAPTIONS
 10
350.409794
 20
11.088615
 30
0.0
 11
350.720328
 21
8.961971
 31
0.0
  0
LINE
  8
CAPTIONS
 10
350.138439
 20
11.734728
 30
0.0
 11
350.409794
 21
11.088615
 31
0.0
  0
LINE
  8
CAPTIONS
 10
350.293706
 20
11.919579
 30
0.0
 11
350.138439
 21
11.734728
 31
0.0
  0
LINE
  8
CAPTIONS
 10
350.565061
 20
12.012867
 30
0.0
 11
350.293706
 21
11.919579
 31
0.0
  0
LINE
  8
CAPTIONS
 10
350.798687
 20
11.781373
 30
0.0
 11
350.565061
 21
12.012867
 31
0.0
  0
LINE
  8
CAPTIONS
 10
351.264488
 20
9.516522
 30
0.0
 11
350.798687
 21
11.781373
 31
0.0
  0
LINE
  8
CAPTIONS
 10
351.186129
 20
12.197718
 30
0.0
 11
351.846376
 21
12.520774
 31
0.0
  0
LINE
  8
CAPTIONS
 10
351.070041
 20
11.50496
 30
0.0
 11
351.186129
 21
12.197718
 31
0.0
  0
LINE
  8
CAPTIONS
 10
351.264488
 20
9.516522
 30
0.0
 11
351.070041
 21
11.50496
 31
0.0
  0
LINE
  8
CAPTIONS
 10
352.196089
 20
10.440774
 30
0.0
 11
351.846376
 21
12.520774
 31
0.0
  0
ARC
  8
CAPTIONS
 10
352.502686
 20
11.784934
 30
0.0
 40
0.56983
 50
319.077108
 51
161.449207
  0
ARC
  8
CAPTIONS
 10
344.845715
 20
16.361797
 30
0.0
 40
9.482187
 50
274.559046
 51
328.530496
  0
LINE
  8
CAPTIONS
 10
344.76214
 20
6.510543
 30
0.0
 11
345.59942
 21
6.909612
 31
0.0
  0
TEXT
  8
CAPTIONS
 10
281.535692
 20
5.610623
 30
0.0
 40
2.7648
  1
DIV., AQUA-CHEM INC.
  7
ROMANS
  0
TEXT
  8
CAPTIONS
 10
368.461248
 20
5.531303
 30
0.0
 40
2.7648
  1
MILWAUKEE,WISCONSIN
  7
ROMANS
  0
TEXT
  8
CAPTIONS
 10
370.798465
 20
11.494644
 30
0.0
 40
8.2944
  1
Brooks
  7
ROMANT
  0
TEXT
  8
CAPTIONS
 10
282.267547
 20
11.415324
 30
0.0
 40
8.2944
  1
Cleaver
  7
ROMANT
  0
TEXT
  8
CAPTIONS
 10
519.182391
 20
414.045258
 30
0.0
 40
5.0
  1
REAR TUBE CLEARANCE
  7
ROMAND
  0
TEXT
  8
CAPTIONS
 10
270.833987
 20
381.502969
 30
0.0
 40
5.0
  1
FRONT DOOR SWING
  7
ROMAND
  0
TEXT
  8
CAPTIONS
 10
450.086781
 20
401.3479
 30
0.0
 40
5.0
  1
REAR DOOR SWING
  7
ROMAND
  0
TEXT
  8
CAPTIONS
 10
191.169387
 20
399.195116
 30
0.0
 40
5.0
  1
FRONT TUBE CLEARANCE
  7
ROMAND
 72
     4
 11
238.669387
 21
401.695116
 31
0.0
  0
SOLID
  8
CAPTIONS
  6
CONTINUOUS
 10
212.627799
 20
356.57698
 30
0.0
 11
211.300096
 21
355.569516
 31
0.0
 12
214.986339
 22
352.09014
 32
0.0
 13
214.986339
 23
352.09014
 33
0.0
  0
LINE
  8
CAPTIONS
  6
CONTINUOUS
 10
214.986339
 20
352.09014
 30
0.0
 11
177.490433
 21
401.504737
 31
0.0
  0
LINE
  8
CAPTIONS
  6
CONTINUOUS
 10
177.490433
 20
401.504737
 30
0.0
 11
184.822328
 21
401.504737
 31
0.0
  0
LINE
  8
CAPTIONS
  6
CONTINUOUS
 10
282.193354
 20
355.334048
 30
0.0
 11
260.762601
 21
383.576919
 31
0.0
  0
LINE
  8
CAPTIONS
  6
CONTINUOUS
 10
260.762601
 20
383.576919
 30
0.0
 11
267.672682
 21
383.576919
 31
0.0
  0
LINE
  8
CAPTIONS
  6
CONTINUOUS
 10
498.726724
 20
357.383345
 30
0.0
 11
534.240083
 21
404.18521
 31
0.0
  0
SOLID
  8
CAPTIONS
  6
CONTINUOUS
 10
498.062873
 20
357.887076
 30
0.0
 11
499.390576
 21
356.879613
 31
0.0
 12
495.704333
 22
353.400236
 32
0.0
 13
495.704333
 23
353.400236
 33
0.0
  0
LINE
  8
CAPTIONS
  6
CONTINUOUS
 10
534.240083
 20
404.18521
 30
0.0
 11
526.646273
 21
404.18521
 31
0.0
  0
LINE
  8
CAPTIONS
  6
CONTINUOUS
 10
577.099569
 20
355.35945
 30
0.0
 11
623.681479
 21
416.748188
 31
0.0
  0
SOLID
  8
CAPTIONS
  6
CONTINUOUS
 10
576.435718
 20
355.863182
 30
0.0
 11
577.76342
 21
354.855718
 31
0.0
 12
574.077178
 22
351.376342
 32
0.0
 13
574.077178
 23
351.376342
 33
0.0
  0
LINE
  8
CAPTIONS
  6
CONTINUOUS
 10
623.681479
 20
416.748188
 30
0.0
 11
613.694947
 21
416.748188
 31
0.0
  0
INSERT
  8
0
 66
     1
  2
GETDAT
 10
0.0
 20
-269.951032
 30
0.0
  0
ATTRIB
  8
0
 10
0.0
 20
-269.951032
 30
0.0
 40
1.0
  1
96" DIM.DIAG.PROTOTYPE
  2
DWGNAM
 70
     1
  0
ATTRIB
  8
0
 10
0.0
 20
-269.951032
 30
0.0
 40
1.0
  1
B
  2
DWGSIZ
 70
     1
  0
ATTRIB
  8
0
 10
0.0
 20
-269.951032
 30
0.0
 40
1.0
  1
00
  2
DWGREV
 70
     1
  0
ATTRIB
  8
0
 10
0.0
 20
-269.951032
 30
0.0
 40
1.0
  1
01
  2
DWGSHT
 70
     1
  0
ATTRIB
  8
0
 10
0.0
 20
-269.951032
 30
0.0
 40
1.0
  1
01
  2
DWGOF
 70
     1
  0
ATTRIB
  8
0
 10
0.0
 20
-269.951032
 30
0.0
 40
1.0
  1
 
  2
DWGDIST
 70
     1
  0
ATTRIB
  8
0
 10
0.0
 20
-269.951032
 30
0.0
 40
1.0
  1
01
  2
DWGQUAN
 70
     1
  0
ATTRIB
  8
0
 10
0.0
 20
-269.951032
 30
0.0
 40
1.0
  1
96" DIM. DIAG. PROTOTYPE 
  2
DWGDESC
 70
     1
  0
ATTRIB
  8
0
 10
0.0
 20
-269.951032
 30
0.0
 40
1.0
  1
D. KLEIST 
  2
DRWN
 70
     1
  0
ATTRIB
  8
0
 10
0.0
 20
-269.951032
 30
0.0
 40
1.0
  1
10/14/92
  2
DATE
 70
     1
  0
ATTRIB
  8
0
 10
0.0
 20
-269.951032
 30
0.0
 40
1.0
  1
01 
  2
FILE
 70
     1
  0
SEQEND
  8
0
  0
TEXT
  8
CAPTIONS
 10
317.209488
 20
425.217579
 30
0.0
 40
5.0
  1
SCALE - 1"=1"
  7
ROMAND
  0
LINE
  8
CAPTIONS
  6
DASHED
 10
159.512676
 20
198.971314
 30
0.0
 11
515.512676
 21
198.971314
 31
0.0
  0
LINE
  8
CAPTIONS
  6
DASHED
 10
515.512676
 20
247.170571
 30
0.0
 11
515.512676
 21
198.971314
 31
0.0
  0
LINE
  8
CAPTIONS
  6
DASHED
 10
629.512676
 20
247.170571
 30
0.0
 11
629.512676
 21
211.399606
 31
0.0
  0
LINE
  8
CAPTIONS
  6
DASHED
 10
629.512676
 20
211.399606
 30
0.0
 11
212.512676
 21
211.399606
 31
0.0
  0
LINE
  8
CAPTIONS
  6
DASHED
 10
159.512676
 20
247.170571
 30
0.0
 11
159.512676
 21
198.971314
 31
0.0
  0
LINE
  8
CAPTIONS
  6
DASHED
 10
212.512676
 20
247.170571
 30
0.0
 11
212.512676
 21
211.399606
 31
0.0
  0
TEXT
  8
CAPTIONS
  6
CONTINUOUS
 10
230.022152
 20
212.957894
 30
0.0
 40
5.0
  1
Distance required for tube removal from rear
  7
ROMANS
  0
TEXT
  8
CAPTIONS
  6
CONTINUOUS
 10
203.022152
 20
200.529601
 30
0.0
 40
5.0
  1
Distance required for tube removal from front
  7
ROMANS
  0
LINE
  8
RIGHTSIDE
 10
302.012676
 20
159.721047
 30
0.0
 11
302.012676
 21
160.221047
 31
0.0
  0
LINE
  8
RIGHTSIDE
 10
322.012676
 20
159.721047
 30
0.0
 11
322.012676
 21
160.221047
 31
0.0
  0
LINE
  8
RIGHTSIDE
 10
302.594672
 20
150.866746
 30
0.0
 11
302.512676
 21
150.866746
 31
0.0
  0
LINE
  8
RIGHTSIDE
 10
486.770026
 20
53.04381
 30
0.0
 11
526.300705
 21
53.04381
 31
0.0
  0
LINE
  8
RIGHTSIDE
 10
287.255327
 20
53.04381
 30
0.0
 11
247.724648
 21
53.04381
 31
0.0
  0
LINE
  8
PLANVIEW
 10
490.349725
 20
312.854794
 30
0.0
 11
495.222793
 21
312.854794
 31
0.0
  0
LINE
  8
PLANVIEW
 10
495.222793
 20
311.272288
 30
0.0
 11
496.80513
 21
311.272288
 31
0.0
  0
LINE
  8
PLANVIEW
 10
495.222793
 20
316.775964
 30
0.0
 11
496.80513
 21
316.775964
 31
0.0
  0
LINE
  8
PLANVIEW
 10
495.222793
 20
316.775964
 30
0.0
 11
495.222793
 21
311.272288
 31
0.0
  0
LINE
  8
PLANVIEW
 10
496.80513
 20
316.775964
 30
0.0
 11
496.80513
 21
311.272288
 31
0.0
  0
LINE
  8
PLANVIEW
 10
490.349725
 20
315.193458
 30
0.0
 11
495.222793
 21
315.193458
 31
0.0
  0
ARC
  8
RIGHTSIDE
 10
275.534258
 20
127.746235
 30
0.0
 40
2.0
 50
180.0
 51
270.0
  0
LINE
  8
RIGHTSIDE
 10
274.485255
 20
142.939738
 30
0.0
 11
282.873016
 21
142.939738
 31
0.0
  0
LINE
  8
PLANVIEW
  6
CENTER
 10
506.273123
 20
314.024126
 30
0.0
 11
265.660123
 21
314.024126
 31
0.0
  0
LINE
  8
RIGHTSIDE
  6
CENTER
 10
506.273123
 20
108.866746
 30
0.0
 11
265.660123
 21
108.866746
 31
0.0
  0
LINE
  8
PLANVIEW
  6
DASHED
 10
269.435745
 20
253.827208
 30
0.0
 11
242.348205
 21
253.827208
 31
0.0
  0
SOLID
  8
CAPTIONS
  6
CONTINUOUS
 10
279.834814
 20
359.820888
 30
0.0
 11
278.507111
 21
358.813424
 31
0.0
 12
282.193354
 22
355.334048
 32
0.0
 13
282.193354
 23
355.334048
 33
0.0
  0
CIRCLE
  8
PLANVIEW
 10
292.653702
 20
314.024126
 30
0.0
 40
0.7
  0
LINE
  8
PLANVIEW
  6
DASHED
 10
264.645775
 20
238.286516
 30
0.0
 11
264.645775
 21
242.259095
 31
0.0
  0
LINE
  8
PLANVIEW
  6
DASHED
 10
247.138175
 20
238.286516
 30
0.0
 11
247.138175
 21
242.259095
 31
0.0
  0
LINE
  8
PLANVIEW
  6
DASHED
 10
242.348205
 20
245.286516
 30
0.0
 11
269.435745
 21
245.286516
 31
0.0
  0
LINE
  8
PLANVIEW
  6
DASHED
 10
242.348205
 20
242.259095
 30
0.0
 11
269.435745
 21
242.259095
 31
0.0
  0
LINE
  8
PLANVIEW
  6
DASHED
 10
247.138175
 20
238.286516
 30
0.0
 11
264.645775
 21
238.286516
 31
0.0
  0
LINE
  8
PLANVIEW
 10
289.610272
 20
314.024126
 30
0.0
 11
289.610272
 21
349.024126
 31
0.0
  0
LINE
  8
PLANVIEW
 10
289.610272
 20
314.024126
 30
0.0
 11
289.610272
 21
277.024126
 31
0.0
  0
LINE
  8
PLANVIEW
 10
294.610272
 20
354.024126
 30
0.0
 11
300.512676
 21
354.024126
 31
0.0
  0
ARC
  8
PLANVIEW
  6
DASHED
 10
301.427049
 20
268.506642
 30
0.0
 40
88.932185
 50
100.23335
 51
178.853215
  0
ARC
  8
RIGHTSIDE
  6
CONTINUOUS
 10
347.141128
 20
122.609709
 30
0.0
 40
0.5
 50
270.0
 51
0.098101
  0
ARC
  8
RIGHTSIDE
  6
CONTINUOUS
 10
342.882695
 20
122.609709
 30
0.0
 40
0.5
 50
180.098875
 51
270.0
  0
ARC
  8
RIGHTSIDE
  6
CONTINUOUS
 10
347.141128
 20
142.925663
 30
0.0
 40
0.5
 50
359.901898
 51
90.0
  0
ARC
  8
RIGHTSIDE
  6
CONTINUOUS
 10
342.882695
 20
142.925663
 30
0.0
 40
0.5
 50
90.0
 51
179.901125
  0
ARC
  8
RIGHTSIDE
 10
349.14854
 20
128.951904
 30
0.0
 40
1.0
 50
103.221472
 51
179.869697
  0
LINE
  8
RIGHTSIDE
  6
CONTINUOUS
 10
342.837177
 20
142.253541
 30
0.0
 11
347.138232
 21
142.253541
 31
0.0
  0
LINE
  8
RIGHTSIDE
  6
CONTINUOUS
 10
342.882695
 20
122.109709
 30
0.0
 11
347.141128
 21
122.109709
 31
0.0
  0
LINE
  8
RIGHTSIDE
  6
CONTINUOUS
 10
342.882695
 20
143.425663
 30
0.0
 11
347.141128
 21
143.425663
 31
0.0
  0
ARC
  8
RIGHTSIDE
  6
CONTINUOUS
 10
345.012766
 20
153.149402
 30
0.0
 40
1.525326
 50
314.37119
 51
225.62881
  0
LINE
  8
RIGHTSIDE
  6
CONTINUOUS
 10
343.9461
 20
122.111454
 30
0.0
 11
343.9461
 21
108.258602
 31
0.0
  0
LINE
  8
RIGHTSIDE
  6
CONTINUOUS
 10
346.079433
 20
122.109709
 30
0.0
 11
346.079433
 21
108.258602
 31
0.0
  0
ARC
  8
RIGHTSIDE
  6
CONTINUOUS
 10
345.012766
 20
153.149402
 30
0.0
 40
1.066706
 50
359.509422
 51
180.490578
  0
LINE
  8
RIGHTSIDE
  6
CONTINUOUS
 10
352.58836
 20
139.793374
 30
0.0
 11
352.58836
 21
139.293375
 31
0.0
  0
LINE
  8
RIGHTSIDE
  6
CONTINUOUS
 10
355.213109
 20
140.253128
 30
0.0
 11
355.213109
 21
139.793374
 31
0.0
  0
LINE
  8
RIGHTSIDE
  6
CONTINUOUS
 10
362.365758
 20
140.253128
 30
0.0
 11
362.365758
 21
139.293375
 31
0.0
  0
LINE
  8
RIGHTSIDE
  6
CONTINUOUS
 10
352.58836
 20
139.293375
 30
0.0
 11
362.365758
 21
139.293375
 31
0.0
  0
LINE
  8
RIGHTSIDE
  6
CONTINUOUS
 10
362.365758
 20
140.253128
 30
0.0
 11
355.213109
 21
140.253128
 31
0.0
  0
LINE
  8
RIGHTSIDE
  6
CONTINUOUS
 10
352.58836
 20
139.793374
 30
0.0
 11
362.364479
 21
139.793374
 31
0.0
  0
ARC
  8
RIGHTSIDE
 10
355.059015
 20
139.297864
 30
0.0
 40
2.433514
 50
269.840645
 51
310.249008
  0
ARC
  8
RIGHTSIDE
  6
CONTINUOUS
 10
345.012766
 20
108.258602
 30
0.0
 40
2.026873
 50
121.753237
 51
58.246763
  0
ARC
  8
RIGHTSIDE
  6
CONTINUOUS
 10
345.012766
 20
108.258602
 30
0.0
 40
1.066706
 50
179.509422
 51
0.490578
  0
LINE
  8
RIGHTSIDE
  6
CONTINUOUS
 10
346.079433
 20
153.140269
 30
0.0
 11
346.079433
 21
143.425663
 31
0.0
  0
LINE
  8
RIGHTSIDE
  6
CONTINUOUS
 10
343.9461
 20
153.140269
 30
0.0
 11
343.9461
 21
143.425663
 31
0.0
  0
LINE
  8
RIGHTSIDE
 10
340.837183
 20
140.258776
 30
0.0
 11
340.797981
 21
125.281545
 31
0.0
  0
LINE
  8
RIGHTSIDE
 10
349.172008
 20
136.866823
 30
0.0
 11
355.108503
 21
136.864853
 31
0.0
  0
LINE
  8
RIGHTSIDE
 10
342.796501
 20
123.276311
 30
0.0
 11
347.135114
 21
123.273115
 31
0.0
  0
ARC
  8
RIGHTSIDE
 10
356.900486
 20
139.112965
 30
0.0
 40
4.425234
 50
292.72343
 51
2.168935
  0
ARC
  8
RIGHTSIDE
 10
355.059015
 20
139.297864
 30
0.0
 40
2.433514
 50
321.783307
 51
359.840645
  0
LINE
  8
RIGHTSIDE
 10
356.370251
 20
137.876899
 30
0.0
 11
358.655394
 21
134.057304
 31
0.0
  0
LINE
  8
RIGHTSIDE
 10
356.69195
 20
138.262487
 30
0.0
 11
358.933875
 21
134.485359
 31
0.0
  0
ARC
  8
RIGHTSIDE
 10
356.710036
 20
135.627521
 30
0.0
 40
2.499999
 50
321.090906
 51
332.831874
  0
ARC
  8
RIGHTSIDE
 10
355.059015
 20
139.297864
 30
0.0
 40
1.933515
 50
312.70015
 51
327.622896
  0
ARC
  8
RIGHTSIDE
 10
347.137895
 20
124.27311
 30
0.0
 40
1.0
 50
269.840645
 51
359.840645
  0
LINE
  8
RIGHTSIDE
 10
348.137891
 20
124.270329
 30
0.0
 11
348.148543
 21
128.954178
 31
0.0
  0
ARC
  8
RIGHTSIDE
 10
347.132193
 20
141.203559
 30
0.0
 40
1.05
 50
359.840645
 51
89.670485
  0
ARC
  8
RIGHTSIDE
 10
341.79651
 20
160.24469
 30
0.0
 40
31.144841
 50
283.221472
 51
302.772575
  0
LINE
  8
RIGHTSIDE
 10
347.641127
 20
142.924807
 30
0.0
 11
347.639749
 21
142.119708
 31
0.0
  0
LINE
  8
RIGHTSIDE
 10
342.382696
 20
142.926525
 30
0.0
 11
342.381444
 21
142.200926
 31
0.0
  0
LINE
  8
RIGHTSIDE
 10
348.172933
 20
137.869604
 30
0.0
 11
348.182189
 21
141.19761
 31
0.0
  0
ARC
  8
RIGHTSIDE
 10
349.172929
 20
137.866823
 30
0.0
 40
1.0
 50
179.840645
 51
269.947215
  0
LINE
  8
RIGHTSIDE
 10
342.382696
 20
122.608846
 30
0.0
 11
342.381468
 21
123.32016
 31
0.0
  0
LINE
  8
RIGHTSIDE
 10
347.641127
 20
122.610565
 30
0.0
 11
347.639762
 21
123.408166
 31
0.0
  0
ARC
  8
PLANVIEW
  6
CONTINUOUS
 10
346.056712
 20
267.054267
 30
0.0
 40
5.352655
 50
111.288727
 51
179.861012
  0
LINE
  8
PLANVIEW
 10
344.569053
 20
261.331049
 30
0.0
 11
344.569053
 21
261.912498
 31
0.0
  0
LINE
  8
PLANVIEW
 10
346.202561
 20
258.601049
 30
0.0
 11
346.202561
 21
257.591223
 31
0.0
  0
LINE
  8
PLANVIEW
  6
CONTINUOUS
 10
344.020807
 20
261.331049
 30
0.0
 11
344.020807
 21
258.601049
 31
0.0
  0
LINE
  8
PLANVIEW
  6
CONTINUOUS
 10
346.750807
 20
261.331049
 30
0.0
 11
344.020807
 21
261.331049
 31
0.0
  0
LINE
  8
PLANVIEW
  6
CONTINUOUS
 10
346.750807
 20
258.601049
 30
0.0
 11
346.750807
 21
261.331049
 31
0.0
  0
LINE
  8
PLANVIEW
  6
CONTINUOUS
 10
344.020807
 20
258.601049
 30
0.0
 11
346.750807
 21
258.601049
 31
0.0
  0
LINE
  8
PLANVIEW
 10
342.497998
 20
257.591223
 30
0.0
 11
342.497998
 21
256.122934
 31
0.0
  0
LINE
  8
PLANVIEW
 10
348.273616
 20
257.591223
 30
0.0
 11
348.273616
 21
256.122934
 31
0.0
  0
LINE
  8
PLANVIEW
 10
348.273616
 20
257.591223
 30
0.0
 11
342.497998
 21
257.591223
 31
0.0
  0
LINE
  8
PLANVIEW
 10
346.202561
 20
261.705502
 30
0.0
 11
346.202561
 21
261.331049
 31
0.0
  0
LINE
  8
PLANVIEW
 10
344.569053
 20
257.591223
 30
0.0
 11
344.569053
 21
258.601049
 31
0.0
  0
LINE
  8
PLANVIEW
  6
CONTINUOUS
 10
347.651414
 20
272.16385
 30
0.0
 11
349.311878
 21
272.741767
 31
0.0
  0
LINE
  8
PLANVIEW
 10
347.651414
 20
261.944683
 30
0.0
 11
349.311878
 21
261.366767
 31
0.0
  0
ARC
  8
PLANVIEW
  6
CONTINUOUS
 10
346.056712
 20
267.054267
 30
0.0
 40
5.352655
 50
72.666845
 51
87.966257
  0
ARC
  8
PLANVIEW
 10
346.056712
 20
267.054267
 30
0.0
 40
5.352655
 50
179.861012
 51
287.333155
  0
LINE
  8
PLANVIEW
 10
348.273616
 20
256.122934
 30
0.0
 11
342.497998
 21
256.122934
 31
0.0
  0
ARC
  8
PLANVIEW
  6
CONTINUOUS
 10
345.180001
 20
314.101186
 30
0.0
 40
2.205666
 50
298.920975
 51
241.079025
  0
ARC
  8
PLANVIEW
  6
CONTINUOUS
 10
345.180001
 20
314.101186
 30
0.0
 40
1.067984
 50
357.153517
 51
182.846483
  0
ARC
  8
PLANVIEW
  6
CONTINUOUS
 10
345.180001
 20
267.039627
 30
0.0
 40
1.066836
 50
181.021808
 51
358.978192
  0
LINE
  8
PLANVIEW
 10
346.246667
 20
264.997163
 30
0.0
 11
346.246667
 21
314.126228
 31
0.0
  0
LINE
  8
PLANVIEW
 10
344.113335
 20
264.997163
 30
0.0
 11
344.113335
 21
314.126228
 31
0.0
  0
ARC
  8
PLANVIEW
 10
345.227495
 20
267.050888
 30
0.0
 40
2.298745
 50
118.991636
 51
63.681507
  0
LINE
  8
PLANVIEW
 10
362.366358
 20
272.741767
 30
0.0
 11
362.366358
 21
261.366767
 31
0.0
  0
LINE
  8
PLANVIEW
 10
349.311878
 20
272.741767
 30
0.0
 11
362.366358
 21
272.741767
 31
0.0
  0
LINE
  8
PLANVIEW
 10
349.311878
 20
261.366767
 30
0.0
 11
362.366358
 21
261.366767
 31
0.0
  0
POLYLINE
  8
FRONTVIEW
  6
CONTINUOUS
 66
     1
 10
0.0
 20
0.0
 30
0.0
  0
VERTEX
  8
FRONTVIEW
  6
CONTINUOUS
 10
117.082016
 20
141.801337
 30
0.0
 42
-0.360272
  0
VERTEX
  8
FRONTVIEW
  6
CONTINUOUS
 10
119.16728
 20
143.52797
 30
0.0
 42
-0.205339
  0
SEQEND
  8
FRONTVIEW
  6
CONTINUOUS
  0
LINE
  8
FRONTVIEW
  6
CONTINUOUS
 10
126.665091
 20
135.130372
 30
0.0
 11
129.30841
 21
135.130372
 31
0.0
  0
LINE
  8
FRONTVIEW
  6
CONTINUOUS
 10
126.665091
 20
135.676372
 30
0.0
 11
129.30841
 21
135.676372
 31
0.0
  0
LINE
  8
FRONTVIEW
  6
CONTINUOUS
 10
130.41029
 20
137.491014
 30
0.0
 11
129.30841
 21
136.77876
 31
0.0
  0
LINE
  8
FRONTVIEW
  6
CONTINUOUS
 10
130.41029
 20
133.192928
 30
0.0
 11
130.41029
 21
137.491014
 31
0.0
  0
LINE
  8
FRONTVIEW
  6
CONTINUOUS
 10
129.30841
 20
134.126227
 30
0.0
 11
130.41029
 21
133.192928
 31
0.0
  0
LINE
  8
FRONTVIEW
  6
CONTINUOUS
 10
129.30841
 20
136.77876
 30
0.0
 11
129.30841
 21
134.126227
 31
0.0
  0
LINE
  8
FRONTVIEW
  6
CONTINUOUS
 10
129.30841
 20
125.701978
 30
0.0
 11
129.30841
 21
128.354511
 31
0.0
  0
LINE
  8
FRONTVIEW
  6
CONTINUOUS
 10
129.30841
 20
128.354511
 30
0.0
 11
130.41029
 21
129.28781
 31
0.0
  0
LINE
  8
FRONTVIEW
  6
CONTINUOUS
 10
130.41029
 20
129.28781
 30
0.0
 11
130.41029
 21
124.989724
 31
0.0
  0
LINE
  8
FRONTVIEW
  6
CONTINUOUS
 10
130.41029
 20
124.989724
 30
0.0
 11
129.30841
 21
125.701978
 31
0.0
  0
LINE
  8
FRONTVIEW
  6
CONTINUOUS
 10
126.665091
 20
126.804365
 30
0.0
 11
129.30841
 21
126.804365
 31
0.0
  0
LINE
  8
FRONTVIEW
  6
CONTINUOUS
 10
126.665091
 20
127.350365
 30
0.0
 11
129.30841
 21
127.350365
 31
0.0
  0
LINE
  8
FRONTVIEW
  6
CONTINUOUS
 10
125.315649
 20
137.343651
 30
0.0
 11
123.363064
 21
137.343651
 31
0.0
  0
LINE
  8
FRONTVIEW
  6
CONTINUOUS
 10
123.041285
 20
138.571676
 30
0.0
 11
125.315649
 21
138.571676
 31
0.0
  0
LINE
  8
FRONTVIEW
  6
CONTINUOUS
 10
126.665091
 20
141.715419
 30
0.0
 11
125.315649
 21
141.715419
 31
0.0
  0
ARC
  8
FRONTVIEW
  6
CONTINUOUS
 10
123.932562
 20
144.43797
 30
0.0
 40
0.91
 50
270.0
 51
0.0
  0
ARC
  8
FRONTVIEW
  6
CONTINUOUS
 10
123.932562
 20
146.49696
 30
0.0
 40
0.91
 50
0.0
 51
90.0
  0
LINE
  8
FRONTVIEW
 10
120.004987
 20
147.40696
 30
0.0
 11
120.004987
 21
155.187057
 31
0.0
  0
LINE
  8
FRONTVIEW
 10
118.284148
 20
147.40696
 30
0.0
 11
118.284148
 21
155.187057
 31
0.0
  0
LINE
  8
FRONTVIEW
  6
CONTINUOUS
 10
123.932562
 20
143.52797
 30
0.0
 11
115.608163
 21
143.52797
 31
0.0
  0
LINE
  8
FRONTVIEW
  6
CENTER
 10
124.842562
 20
144.43797
 30
0.0
 11
124.842562
 21
146.49696
 31
0.0
  0
LINE
  8
FRONTVIEW
 10
121.428604
 20
156.182164
 30
0.0
 11
121.428604
 21
157.7788
 31
0.0
  0
LINE
  8
FRONTVIEW
 10
120.849235
 20
156.182164
 30
0.0
 11
121.428604
 21
156.182164
 31
0.0
  0
ARC
  8
FRONTVIEW
 10
120.849235
 20
155.515498
 30
0.0
 40
0.666667
 50
90.0
 51
180.0
  0
LINE
  8
FRONTVIEW
 10
120.182568
 20
155.187057
 30
0.0
 11
120.182568
 21
155.515498
 31
0.0
  0
LINE
  8
FRONTVIEW
  6
CONTINUOUS
 10
126.665091
 20
120.765319
 30
0.0
 11
126.665091
 21
141.715419
 31
0.0
  0
LINE
  8
FRONTVIEW
  6
CONTINUOUS
 10
126.450166
 20
120.765319
 30
0.0
 11
126.665091
 21
120.765319
 31
0.0
  0
LINE
  8
FRONTVIEW
  6
CONTINUOUS
 10
125.315649
 20
141.715419
 30
0.0
 11
125.315649
 21
126.256346
 31
0.0
  0
LINE
  8
FRONTVIEW
  6
CONTINUOUS
 10
123.932562
 20
147.40696
 30
0.0
 11
114.401997
 21
147.40696
 31
0.0
  0
LINE
  8
FRONTVIEW
 10
121.428604
 20
157.7788
 30
0.0
 11
116.905956
 21
157.7788
 31
0.0
  0
ARC
  8
FRONTVIEW
 10
117.485325
 20
155.515498
 30
0.0
 40
0.666667
 50
0.0
 51
90.0
  0
LINE
  8
FRONTVIEW
 10
118.151991
 20
155.187057
 30
0.0
 11
120.182568
 21
155.187057
 31
0.0
  0
LINE
  8
FRONTVIEW
 10
118.151991
 20
155.515498
 30
0.0
 11
118.151991
 21
155.187057
 31
0.0
  0
LINE
  8
FRONTVIEW
 10
117.485325
 20
156.182164
 30
0.0
 11
116.905956
 21
156.182164
 31
0.0
  0
LINE
  8
FRONTVIEW
 10
116.905956
 20
156.182164
 30
0.0
 11
116.905956
 21
157.7788
 31
0.0
  0
LINE
  8
FRONTVIEW
 10
86.846439
 20
157.463641
 30
0.0
 11
116.905956
 21
157.463641
 31
0.0
  0
LINE
  8
FRONTVIEW
 10
87.142698
 20
156.474841
 30
0.0
 11
116.905956
 21
156.474841
 31
0.0
  0
LINE
  8
FRONTVIEW
  6
CONTINUOUS
 10
121.085464
 20
97.191528
 30
0.0
 11
121.085464
 21
88.566888
 31
0.0
  0
LINE
  8
FRONTVIEW
  6
CONTINUOUS
 10
121.085464
 20
88.566888
 30
0.0
 11
115.085464
 21
88.566888
 31
0.0
  0
LINE
  8
FRONTVIEW
  6
CONTINUOUS
 10
115.085464
 20
90.465556
 30
0.0
 11
115.085464
 21
88.566888
 31
0.0
  0
LINE
  8
PLANVIEW
 10
362.366358
 20
272.024126
 30
0.0
 11
473.512676
 21
272.024126
 31
0.0
  0
LINE
  8
FRONTVIEW
 10
115.31352
 20
53.04381
 30
0.0
 11
124.318098
 21
53.04381
 31
0.0
  0
LINE
  8
FRONTVIEW
 10
98.081838
 20
72.288554
 30
0.0
 11
103.628701
 21
63.04381
 31
0.0
  0
LINE
  8
FRONTVIEW
 10
115.011045
 20
90.091581
 30
0.0
 11
109.628701
 21
63.04381
 31
0.0
  0
POLYLINE
  8
FRONTVIEW
  6
CONTINUOUS
 66
     1
 10
0.0
 20
0.0
 30
0.0
  0
VERTEX
  8
FRONTVIEW
  6
CONTINUOUS
 10
123.939037
 20
130.17066
 30
0.0
 42
0.009706
 50
68.483559
  0
VERTEX
  8
FRONTVIEW
  6
CONTINUOUS
 10
123.962234
 20
131.365505
 30
0.0
 42
0.04049
  0
VERTEX
  8
FRONTVIEW
  6
CONTINUOUS
 10
123.559801
 20
136.326899
 30
0.0
 42
0.053466
  0
VERTEX
  8
FRONTVIEW
  6
CONTINUOUS
 10
122.557824
 20
139.965667
 30
0.0
 42
0.09659
 70
     2
 50
111.516441
  0
VERTEX
  8
FRONTVIEW
  6
CONTINUOUS
 10
120.704726
 20
142.86878
 30
0.0
 42
0.205339
 50
111.516441
  0
VERTEX
  8
FRONTVIEW
  6
CONTINUOUS
 10
119.16728
 20
143.52797
 30
0.0
 42
0.205339
  0
SEQEND
  8
FRONTVIEW
  6
CONTINUOUS
  0
LINE
  8
FRONTVIEW
  6
CENTER
 10
113.491997
 20
145.731789
 30
0.0
 11
113.491997
 21
146.49696
 31
0.0
  0
ARC
  8
FRONTVIEW
  6
CONTINUOUS
 10
114.401997
 20
146.49696
 30
0.0
 40
0.91
 50
90.0
 51
180.0
  0
CIRCLE
  8
RIGHTSIDE
 10
465.65195
 20
57.928322
 30
0.0
 40
2.5
  0
LINE
  8
RIGHTSIDE
 10
466.394634
 20
156.1677
 30
0.0
 11
471.853516
 21
156.1677
 31
0.0
  0
LINE
  8
RIGHTSIDE
 10
471.853516
 20
156.1677
 30
0.0
 11
471.853516
 21
155.4177
 31
0.0
  0
LINE
  8
RIGHTSIDE
 10
471.853516
 20
155.4177
 30
0.0
 11
466.394634
 21
155.4177
 31
0.0
  0
LINE
  8
RIGHTSIDE
 10
468.219519
 20
155.2302
 30
0.0
 11
468.219519
 21
155.0427
 31
0.0
  0
LINE
  8
RIGHTSIDE
 10
468.407019
 20
155.4177
 30
0.0
 11
468.407019
 21
155.2302
 31
0.0
  0
LINE
  8
RIGHTSIDE
 10
466.394634
 20
155.4177
 30
0.0
 11
466.394634
 21
156.1677
 31
0.0
  0
LINE
  8
RIGHTSIDE
 10
469.907019
 20
155.4177
 30
0.0
 11
469.907019
 21
155.2302
 31
0.0
  0
LINE
  8
RIGHTSIDE
 10
468.407019
 20
144.66371
 30
0.0
 11
468.407019
 21
144.47621
 31
0.0
  0
LINE
  8
RIGHTSIDE
 10
469.806428
 20
146.05804
 30
0.0
 11
468.219519
 21
146.05804
 31
0.0
  0
LINE
  8
RIGHTSIDE
 10
468.219519
 20
146.24554
 30
0.0
 11
469.712043
 21
146.24554
 31
0.0
  0
LINE
  8
RIGHTSIDE
 10
468.219519
 20
146.05804
 30
0.0
 11
468.219519
 21
146.24554
 31
0.0
  0
LINE
  8
RIGHTSIDE
 10
467.173269
 20
144.47621
 30
0.0
 11
467.173269
 21
144.38246
 31
0.0
  0
LINE
  8
RIGHTSIDE
 10
468.407019
 20
155.0427
 30
0.0
 11
468.407019
 21
146.24554
 31
0.0
  0
LINE
  8
RIGHTSIDE
 10
467.642019
 20
155.4177
 30
0.0
 11
467.642019
 21
144.47621
 31
0.0
  0
LINE
  8
RIGHTSIDE
 10
467.548269
 20
155.4177
 30
0.0
 11
467.548269
 21
144.47621
 31
0.0
  0
LINE
  8
RIGHTSIDE
 10
469.907019
 20
155.0427
 30
0.0
 11
469.907019
 21
146.271327
 31
0.0
  0
LINE
  8
RIGHTSIDE
 10
469.907019
 20
146.05804
 30
0.0
 11
469.907019
 21
146.064816
 31
0.0
  0
LINE
  8
RIGHTSIDE
 10
469.907019
 20
144.66371
 30
0.0
 11
469.907019
 21
144.47621
 31
0.0
  0
ARC
  8
RIGHTSIDE
 10
469.712043
 20
146.99554
 30
0.0
 40
0.75
 50
270.0
 51
323.24633
  0
ARC
  8
RIGHTSIDE
 10
469.806428
 20
146.80804
 30
0.0
 40
0.75
 50
270.0
 51
323.635443
  0
LINE
  8
RIGHTSIDE
 10
467.173269
 20
144.38246
 30
0.0
 11
472.512676
 21
144.38246
 31
0.0
  0
LINE
  8
RIGHTSIDE
 10
467.173269
 20
144.47621
 30
0.0
 11
472.512676
 21
144.47621
 31
0.0
  0
LINE
  8
RIGHTSIDE
 10
468.219519
 20
155.2302
 30
0.0
 11
471.301846
 21
155.2302
 31
0.0
  0
LINE
  8
RIGHTSIDE
 10
468.219519
 20
155.0427
 30
0.0
 11
471.332107
 21
155.0427
 31
0.0
  0
ARC
  8
RIGHTSIDE
 10
471.301846
 20
159.7302
 30
0.0
 40
4.5
 50
270.0
 51
288.301746
  0
ARC
  8
RIGHTSIDE
 10
471.332107
 20
159.5427
 30
0.0
 40
4.5
 50
270.0
 51
288.370634
  0
ARC
  8
RIGHTSIDE
 10
479.234963
 20
135.745124
 30
0.0
 40
20.762981
 50
85.943439
 51
108.301746
  0
ARC
  8
RIGHTSIDE
 10
479.234963
 20
135.745124
 30
0.0
 40
20.575481
 50
85.943439
 51
108.370634
  0
LINE
  8
RIGHTSIDE
 10
481.828761
 20
157.012844
 30
0.0
 11
480.891261
 21
157.012844
 31
0.0
  0
LINE
  8
RIGHTSIDE
 10
481.828761
 20
156.637844
 30
0.0
 11
481.828761
 21
157.012844
 31
0.0
  0
LINE
  8
RIGHTSIDE
 10
480.891261
 20
156.637844
 30
0.0
 11
480.891261
 21
157.012844
 31
0.0
  0
LINE
  8
RIGHTSIDE
 10
482.391261
 20
156.268588
 30
0.0
 11
482.391261
 21
156.456088
 31
0.0
  0
LINE
  8
RIGHTSIDE
 10
481.828761
 20
156.456088
 30
0.0
 11
481.828761
 21
156.637844
 31
0.0
  0
LINE
  8
RIGHTSIDE
 10
480.703761
 20
156.456088
 30
0.0
 11
481.828761
 21
156.456088
 31
0.0
  0
LINE
  8
RIGHTSIDE
 10
482.391261
 20
156.268588
 30
0.0
 11
480.703761
 21
156.268588
 31
0.0
  0
LINE
  8
RIGHTSIDE
 10
481.828761
 20
156.456088
 30
0.0
 11
482.391261
 21
156.456088
 31
0.0
  0
LINE
  8
RIGHTSIDE
 10
480.891261
 20
156.637844
 30
0.0
 11
480.891261
 21
156.456088
 31
0.0
  0
LINE
  8
RIGHTSIDE
 10
482.038134
 20
156.268588
 30
0.0
 11
482.038134
 21
151.863276
 31
0.0
  0
LINE
  8
RIGHTSIDE
 10
482.391261
 20
151.675776
 30
0.0
 11
482.391261
 21
151.863276
 31
0.0
  0
LINE
  8
RIGHTSIDE
 10
482.391261
 20
151.675776
 30
0.0
 11
480.703761
 21
151.675776
 31
0.0
  0
LINE
  8
RIGHTSIDE
 10
480.891261
 20
151.675776
 30
0.0
 11
480.891261
 21
148.566746
 31
0.0
  0
LINE
  8
RIGHTSIDE
 10
481.828761
 20
148.566746
 30
0.0
 11
481.828761
 21
151.675776
 31
0.0
  0
LINE
  8
RIGHTSIDE
 10
480.703761
 20
151.863276
 30
0.0
 11
482.391261
 21
151.863276
 31
0.0
  0
ARC
  8
RIGHTSIDE
 10
480.922693
 20
138.623032
 30
0.0
 40
13.242054
 50
90.94732
 51
143.24633
  0
LINE
  8
RIGHTSIDE
 10
465.907379
 20
146.919598
 30
0.0
 11
467.111843
 21
155.4177
 31
0.0
  0
ARC
  8
RIGHTSIDE
 10
468.877693
 20
142.825756
 30
0.0
 40
3.0
 50
188.066985
 51
270.0
  0
LINE
  8
RIGHTSIDE
 10
472.512676
 20
139.825756
 30
0.0
 11
468.877693
 21
139.825756
 31
0.0
  0
ARC
  8
RIGHTSIDE
 10
480.922693
 20
138.623032
 30
0.0
 40
13.054554
 50
90.94732
 51
143.635443
  0
LINE
  8
RIGHTSIDE
 10
485.057271
 20
148.566746
 30
0.0
 11
473.512676
 21
148.566746
 31
0.0
  0
LINE
  8
RIGHTSIDE
 10
471.512676
 20
139.825756
 30
0.0
 11
471.512676
 21
66.539995
 31
0.0
  0
LINE
  8
RIGHTSIDE
 10
466.466821
 20
150.866746
 30
0.0
 11
346.497437
 21
150.866746
 31
0.0
  0
LINE
  8
RIGHTSIDE
 10
302.594672
 20
150.866746
 30
0.0
 11
303.153145
 21
159.721047
 31
0.0
  0
LINE
  8
RIGHTSIDE
 10
321.430681
 20
150.866746
 30
0.0
 11
320.872207
 21
159.721047
 31
0.0
  0
LINE
  8
FRONTVIEW
 10
63.887434
 20
130.179817
 30
0.0
 11
63.887434
 21
151.189739
 31
0.0
  0
LINE
  8
FRONTVIEW
 10
90.974973
 20
129.840726
 30
0.0
 11
90.974973
 21
151.189739
 31
0.0
  0
LINE
  8
FRONTVIEW
 10
63.887434
 20
151.189739
 30
0.0
 11
90.974973
 21
151.189739
 31
0.0
  0
LINE
  8
PLANVIEW
  6
DASHED
 10
269.435745
 20
258.384112
 30
0.0
 11
269.435745
 21
242.259095
 31
0.0
  0
LINE
  8
PLANVIEW
  6
DASHED
 10
242.348205
 20
258.384112
 30
0.0
 11
242.348205
 21
242.259095
 31
0.0
  0
LINE
  8
FRONTVIEW
 10
77.441201
 20
118.759468
 30
0.0
 11
77.484497
 21
118.759468
 31
0.0
  0
ARC
  8
FRONTVIEW
 10
77.462849
 20
132.538198
 30
0.0
 40
13.778747
 50
189.855318
 51
248.195055
  0
ARC
  8
FRONTVIEW
 10
77.462849
 20
132.538198
 30
0.0
 40
13.778747
 50
291.62447
 51
348.710261
  0
ARC
  8
FRONTVIEW
 10
88.466297
 20
121.203906
 30
0.0
 40
35.0
 50
50.229061
 51
90.0
  0
LINE
  8
FRONTVIEW
 10
77.368376
 20
157.04381
 30
0.0
 11
77.514026
 21
157.04381
 31
0.0
  0
ARC
  8
FRONTVIEW
 10
77.368376
 20
156.04381
 30
0.0
 40
1.0
 50
90.0
 51
170.787527
  0
ARC
  8
RIGHTSIDE
 10
298.747174
 20
119.58214
 30
0.0
 40
2.0
 50
184.260348
 51
270.0
  0
LINE
  8
RIGHTSIDE
 10
293.516584
 20
118.16293
 30
0.0
 11
291.035644
 21
151.46663
 31
0.0
  0
ARC
  8
RIGHTSIDE
 10
294.072988
 20
143.866746
 30
0.0
 40
5.0
 50
123.49688
 51
180.0
  0
ARC
  8
RIGHTSIDE
 10
294.072988
 20
73.866746
 30
0.0
 40
5.0
 50
180.0
 51
270.0
  0
LINE
  8
PLANVIEW
 10
293.018921
 20
270.354747
 30
0.0
 11
291.037313
 21
313.950654
 31
0.0
  0
LINE
  8
PLANVIEW
 10
296.087825
 20
274.106998
 30
0.0
 11
294.270092
 21
314.097597
 31
0.0
  0
ARC
  8
PLANVIEW
 10
292.653702
 20
314.024126
 30
0.0
 40
1.618059
 50
2.602531
 51
182.602531
  0
LINE
  8
PLANVIEW
  6
DASHED
 10
293.718186
 20
260.679459
 30
0.0
 11
293.718186
 21
268.539458
 31
0.0
  0
ARC
  8
PLANVIEW
 10
298.085762
 20
274.197812
 30
0.0
 40
2.0
 50
182.602531
 51
270.0
  0
ARC
  8
PLANVIEW
 10
296.015827
 20
270.490969
 30
0.0
 40
3.0
 50
182.602531
 51
270.0
  0
ARC
  8
PLANVIEW
 10
294.610272
 20
277.024126
 30
0.0
 40
5.0
 50
180.0
 51
248.379282
  0
LINE
  8
PLANVIEW
  6
DASHED
 10
284.180945
 20
275.513985
 30
0.0
 11
159.512676
 21
275.513985
 31
0.0
  0
ARC
  8
PLANVIEW
 10
301.837473
 20
269.84439
 30
0.0
 40
2.384648
 50
279.282469
 51
80.717531
  0
LINE
  8
PLANVIEW
 10
302.012676
 20
314.024126
 30
0.0
 11
322.012676
 21
314.024126
 31
0.0
  0
CIRCLE
  8
PLANVIEW
 10
312.012676
 20
314.024126
 30
0.0
 40
10.0
  0
CIRCLE
  8
PLANVIEW
 10
312.012676
 20
314.024126
 30
0.0
 40
8.859531
  0
LINE
  8
PLANVIEW
 10
302.512676
 20
317.146625
 30
0.0
 11
302.512676
 21
356.024126
 31
0.0
  0
LINE
  8
RIGHTSIDE
 10
465.907379
 20
146.919598
 30
0.0
 11
465.907379
 21
142.404764
 31
0.0
  0
LINE
  8
RIGHTSIDE
 10
468.407019
 20
146.05804
 30
0.0
 11
468.407019
 21
144.85121
 31
0.0
  0
LINE
  8
RIGHTSIDE
 10
469.907019
 20
146.064816
 30
0.0
 11
469.907019
 21
144.876997
 31
0.0
  0
LINE
  8
PLANVIEW
 10
289.610272
 20
327.567896
 30
0.0
 11
273.485255
 21
327.567896
 31
0.0
  0
LINE
  8
PLANVIEW
 10
289.610272
 20
300.480356
 30
0.0
 11
273.485255
 21
300.480356
 31
0.0
  0
LINE
  8
PLANVIEW
 10
269.512676
 20
322.777926
 30
0.0
 11
269.512676
 21
305.270326
 31
0.0
  0
LINE
  8
PLANVIEW
 10
273.485255
 20
327.567896
 30
0.0
 11
273.485255
 21
300.480356
 31
0.0
  0
LINE
  8
PLANVIEW
 10
276.512676
 20
327.567896
 30
0.0
 11
276.512676
 21
300.480356
 31
0.0
  0
LINE
  8
PLANVIEW
 10
269.512676
 20
322.777926
 30
0.0
 11
273.485255
 21
322.777926
 31
0.0
  0
LINE
  8
PLANVIEW
 10
269.512676
 20
305.270326
 30
0.0
 11
273.485255
 21
305.270326
 31
0.0
  0
LINE
  8
PLANVIEW
 10
285.053369
 20
300.480356
 30
0.0
 11
285.053369
 21
327.567896
 31
0.0
  0
LINE
  8
RIGHTSIDE
  6
CONTINUOUS
 10
334.638908
 20
88.566888
 30
0.0
 11
306.285004
 21
88.566888
 31
0.0
  0
LINE
  8
RIGHTSIDE
  6
CONTINUOUS
 10
334.638908
 20
115.876487
 30
0.0
 11
334.638908
 21
88.566888
 31
0.0
  0
LINE
  8
RIGHTSIDE
  6
CONTINUOUS
 10
306.285004
 20
115.876487
 30
0.0
 11
306.285004
 21
88.566888
 31
0.0
  0
LINE
  8
RIGHTSIDE
  6
CONTINUOUS
 10
334.638908
 20
115.876487
 30
0.0
 11
306.285004
 21
115.876487
 31
0.0
  0
LINE
  8
RIGHTSIDE
  6
DASHED
 10
270.39348
 20
148.566746
 30
0.0
 11
159.512676
 21
148.566746
 31
0.0
  0
LINE
  8
FRONTVIEW
 10
39.568882
 20
53.04381
 30
0.0
 11
30.564304
 21
53.04381
 31
0.0
  0
LINE
  8
FRONTVIEW
  6
CENTER
 10
77.441201
 20
62.172751
 30
0.0
 11
77.441201
 21
166.292538
 31
0.0
  0
LINE
  8
FRONTVIEW
  6
CENTER
 10
131.242465
 20
108.866746
 30
0.0
 11
31.88593
 21
108.866746
 31
0.0
  0
ARC
  8
PLANVIEW
 10
294.610272
 20
349.024126
 30
0.0
 40
5.0
 50
90.0
 51
180.0
  0
ARC
  8
RIGHTSIDE
 10
485.057271
 20
143.566746
 30
0.0
 40
5.0
 50
0.0
 51
90.0
  0
ARC
  8
RIGHTSIDE
 10
485.057271
 20
73.916746
 30
0.0
 40
5.0
 50
270.0
 51
0.0
  0
LINE
  8
PLANVIEW
 10
306.285004
 20
261.984882
 30
0.0
 11
306.285004
 21
269.984882
 31
0.0
  0
LINE
  8
PLANVIEW
 10
334.638908
 20
261.984882
 30
0.0
 11
334.638908
 21
269.984882
 31
0.0
  0
LINE
  8
PLANVIEW
 10
306.285004
 20
269.984882
 30
0.0
 11
334.638908
 21
269.984882
 31
0.0
  0
LINE
  8
PLANVIEW
 10
306.285004
 20
261.984882
 30
0.0
 11
334.638908
 21
261.984882
 31
0.0
  0
POLYLINE
  8
FRONTVIEW
  6
CONTINUOUS
 66
     1
 10
0.0
 20
0.0
 30
0.0
 70
     1
 40
0.087756
 41
0.087756
  0
VERTEX
  8
FRONTVIEW
  6
CONTINUOUS
 10
90.087759
 20
145.797798
 30
0.0
  0
VERTEX
  8
FRONTVIEW
  6
CONTINUOUS
 10
90.087759
 20
149.019495
 30
0.0
 42
0.414214
  0
VERTEX
  8
FRONTVIEW
  6
CONTINUOUS
 10
89.2102
 20
149.897054
 30
0.0
  0
VERTEX
  8
FRONTVIEW
  6
CONTINUOUS
 10
65.672202
 20
149.897054
 30
0.0
 42
0.414214
  0
VERTEX
  8
FRONTVIEW
  6
CONTINUOUS
 10
64.794644
 20
149.019495
 30
0.0
  0
VERTEX
  8
FRONTVIEW
  6
CONTINUOUS
 10
64.794644
 20
145.797798
 30
0.0
 42
0.414214
  0
VERTEX
  8
FRONTVIEW
  6
CONTINUOUS
 10
65.672202
 20
144.920239
 30
0.0
  0
VERTEX
  8
FRONTVIEW
  6
CONTINUOUS
 10
89.2102
 20
144.920239
 30
0.0
 42
0.414214
  0
SEQEND
  8
FRONTVIEW
  6
CONTINUOUS
  0
ARC
  8
FRONTVIEW
 10
77.293646
 20
146.271031
 30
0.0
 40
2.29876
 50
73.493764
 51
74.4082
  0
ARC
  8
FRONTVIEW
 10
77.456519
 20
146.820679
 30
0.0
 40
1.725488
 50
54.419527
 51
73.493591
  0
ARC
  8
FRONTVIEW
 10
77.70558
 20
147.168813
 30
0.0
 40
1.297436
 50
30.070114
 51
54.419544
  0
ARC
  8
FRONTVIEW
 10
78.086302
 20
147.389244
 30
0.0
 40
0.857504
 50
359.999979
 51
30.070151
  0
ARC
  8
FRONTVIEW
 10
78.262378
 20
147.330756
 30
0.0
 40
0.683934
 50
329.929866
 51
4.905749
  0
ARC
  8
FRONTVIEW
 10
77.652506
 20
147.683861
 30
0.0
 40
1.388652
 50
305.580464
 51
329.929893
  0
ARC
  8
FRONTVIEW
 10
77.456519
 20
147.95781
 30
0.0
 40
1.725488
 50
286.506409
 51
305.580473
  0
ARC
  8
FRONTVIEW
 10
77.293648
 20
148.506837
 30
0.0
 40
2.298741
 50
270.000045
 51
286.506319
  0
ARC
  8
FRONTVIEW
 10
76.881725
 20
147.60968
 30
0.0
 40
1.297442
 50
210.070176
 51
227.284945
  0
ARC
  8
FRONTVIEW
 10
76.500997
 20
147.389244
 30
0.0
 40
0.857504
 50
179.999984
 51
210.070156
  0
ARC
  8
FRONTVIEW
 10
76.500998
 20
147.389244
 30
0.0
 40
0.857504
 50
149.929849
 51
180.000021
  0
ARC
  8
FRONTVIEW
 10
76.88172
 20
147.168813
 30
0.0
 40
1.297436
 50
125.580444
 51
149.929874
  0
ARC
  8
FRONTVIEW
 10
77.130781
 20
146.820679
 30
0.0
 40
1.725488
 50
106.506409
 51
125.580473
  0
ARC
  8
FRONTVIEW
 10
77.293653
 20
146.271045
 30
0.0
 40
2.298746
 50
94.446912
 51
106.506318
  0
ARC
  8
FRONTVIEW
 10
77.293652
 20
148.506837
 30
0.0
 40
2.298741
 50
253.493681
 51
269.999955
  0
ARC
  8
FRONTVIEW
 10
77.130774
 20
147.957192
 30
0.0
 40
1.725471
 50
243.334254
 51
253.493685
  0
ARC
  8
FRONTVIEW
 10
77.404749
 20
149.321015
 30
0.0
 40
0.127006
 50
26.058138
 51
90.000027
  0
ARC
  8
FRONTVIEW
 10
75.539823
 20
148.409081
 30
0.0
 40
2.202957
 50
19.796937
 51
26.058266
  0
ARC
  8
FRONTVIEW
 10
83.057315
 20
147.6419
 30
0.0
 40
6.067512
 50
168.549831
 51
171.317764
  0
ARC
  8
FRONTVIEW
 10
79.269709
 20
148.409068
 30
0.0
 40
2.202993
 50
153.941824
 51
168.549851
  0
ARC
  8
FRONTVIEW
 10
77.404749
 20
149.321015
 30
0.0
 40
0.127006
 50
89.999937
 51
153.941826
  0
ARC
  8
FRONTVIEW
 10
72.537367
 20
146.986353
 30
0.0
 40
5.266384
 50
348.549808
 51
352.010674
  0
ARC
  8
FRONTVIEW
 10
75.539789
 20
146.37822
 30
0.0
 40
2.202993
 50
333.941804
 51
348.54983
  0
ARC
  8
FRONTVIEW
 10
77.404749
 20
145.466272
 30
0.0
 40
0.127006
 50
270.00003
 51
333.941919
  0
ARC
  8
FRONTVIEW
 10
77.404749
 20
145.466272
 30
0.0
 40
0.127006
 50
206.058117
 51
270.000006
  0
ARC
  8
FRONTVIEW
 10
79.269708
 20
146.378219
 30
0.0
 40
2.202993
 50
191.450154
 51
206.058181
  0
ARC
  8
FRONTVIEW
 10
82.272412
 20
146.986399
 30
0.0
 40
5.26667
 50
188.358819
 51
191.450083
  0
ARC
  8
FRONTVIEW
 10
72.550524
 20
139.868026
 30
0.0
 40
9.256256
 50
47.178359
 51
48.30991
  0
ARC
  8
FRONTVIEW
 10
76.627063
 20
144.266953
 30
0.0
 40
3.258862
 50
35.590662
 51
47.17836
  0
ARC
  8
FRONTVIEW
 10
79.194453
 20
146.103789
 30
0.0
 40
0.101701
 50
325.888644
 51
35.590677
  0
ARC
  8
FRONTVIEW
 10
81.183491
 20
154.006889
 30
0.0
 40
8.010892
 50
227.178319
 51
228.469064
  0
ARC
  8
FRONTVIEW
 10
77.953444
 20
150.521406
 30
0.0
 40
3.258861
 50
215.590671
 51
227.178369
  0
ARC
  8
FRONTVIEW
 10
75.386056
 20
148.683969
 30
0.0
 40
0.101701
 50
145.888644
 51
215.590677
  0
ARC
  8
FRONTVIEW
 10
75.386056
 20
148.683969
 30
0.0
 40
0.101701
 50
76.186623
 51
145.888656
  0
ARC
  8
FRONTVIEW
 10
74.632253
 20
145.618119
 30
0.0
 40
3.258861
 50
64.598944
 51
76.186642
  0
ARC
  8
FRONTVIEW
 10
72.593992
 20
141.32573
 30
0.0
 40
8.010608
 50
61.707948
 51
64.599024
  0
ARC
  8
FRONTVIEW
 10
79.194453
 20
146.103789
 30
0.0
 40
0.101701
 50
256.186623
 51
325.888656
  0
ARC
  8
FRONTVIEW
 10
79.948255
 20
149.16964
 30
0.0
 40
3.258861
 50
244.598944
 51
256.186642
  0
ARC
  8
FRONTVIEW
 10
81.986672
 20
153.462937
 30
0.0
 40
8.010953
 50
241.807185
 51
244.598955
  0
ARC
  8
FRONTVIEW
 10
75.398806
 20
146.097362
 30
0.0
 40
0.089629
 50
142.874757
 51
214.376124
  0
ARC
  8
FRONTVIEW
 10
78.181735
 20
143.991317
 30
0.0
 40
3.579995
 50
132.266064
 51
142.874701
  0
ARC
  8
FRONTVIEW
 10
81.725193
 20
140.092464
 30
0.0
 40
8.8485
 50
131.136718
 51
132.26603
  0
ARC
  8
FRONTVIEW
 10
71.477652
 20
155.408215
 30
0.0
 40
10.23112
 50
296.485995
 51
298.480172
  0
ARC
  8
FRONTVIEW
 10
74.443915
 20
149.454568
 30
0.0
 40
3.579995
 50
285.877352
 51
296.485989
  0
ARC
  8
FRONTVIEW
 10
75.398806
 20
146.097361
 30
0.0
 40
0.089629
 50
214.375979
 51
285.877346
  0
ARC
  8
FRONTVIEW
 10
82.532503
 20
140.643929
 30
0.0
 40
8.849179
 50
116.486045
 51
119.187413
  0
ARC
  8
FRONTVIEW
 10
80.182551
 20
145.360075
 30
0.0
 40
3.579995
 50
105.877365
 51
116.486002
  0
ARC
  8
FRONTVIEW
 10
79.227659
 20
148.717282
 30
0.0
 40
0.089629
 50
34.376009
 51
105.877376
  0
ARC
  8
FRONTVIEW
 10
79.227659
 20
148.717282
 30
0.0
 40
0.089629
 50
322.87467
 51
34.376037
  0
ARC
  8
FRONTVIEW
 10
76.444729
 20
150.823927
 30
0.0
 40
3.579995
 50
312.266064
 51
322.874701
  0
ARC
  8
FRONTVIEW
 10
72.900573
 20
154.72355
 30
0.0
 40
8.849539
 50
310.789319
 51
312.26603
  0
ARC
  8
FRONTVIEW
 10
74.632985
 20
147.400939
 30
0.0
 40
0.097625
 50
107.770486
 51
179.999953
  0
ARC
  8
FRONTVIEW
 10
75.910911
 20
143.413605
 30
0.0
 40
4.28474
 50
97.562078
 51
107.770471
  0
ARC
  8
FRONTVIEW
 10
76.743362
 20
137.142985
 30
0.0
 40
10.610375
 50
95.609002
 51
97.562053
  0
ARC
  8
FRONTVIEW
 10
76.961908
 20
159.305112
 30
0.0
 40
12.271036
 50
262.437931
 51
264.068511
  0
ARC
  8
FRONTVIEW
 10
75.910911
 20
151.388274
 30
0.0
 40
4.28474
 50
252.229529
 51
262.437922
  0
ARC
  8
FRONTVIEW
 10
74.632985
 20
147.40094
 30
0.0
 40
0.097625
 50
180.000001
 51
252.229468
  0
ARC
  8
FRONTVIEW
 10
77.869851
 20
137.143045
 30
0.0
 40
10.610315
 50
82.437943
 51
84.517235
  0
ARC
  8
FRONTVIEW
 10
78.702295
 20
143.413606
 30
0.0
 40
4.284739
 50
72.229526
 51
82.437919
  0
ARC
  8
FRONTVIEW
 10
79.980221
 20
147.400939
 30
0.0
 40
0.097625
 50
0.000047
 51
72.229514
  0
ARC
  8
FRONTVIEW
 10
79.980221
 20
147.40094
 30
0.0
 40
0.097625
 50
287.770532
 51
359.999999
  0
ARC
  8
FRONTVIEW
 10
78.702295
 20
151.388273
 30
0.0
 40
4.284739
 50
277.562081
 51
287.770474
  0
ARC
  8
FRONTVIEW
 10
77.869858
 20
157.658796
 30
0.0
 40
10.610275
 50
275.603748
 51
277.562045
  0
LINE
  8
FRONTVIEW
 10
77.189286
 20
146.377018
 30
0.0
 11
77.149794
 21
146.212602
 31
0.0
  0
LINE
  8
FRONTVIEW
 10
77.531982
 20
146.524719
 30
0.0
 11
77.472368
 21
146.215054
 31
0.0
  0
LINE
  8
FRONTVIEW
 10
76.756655
 20
146.334852
 30
0.0
 11
76.745724
 21
146.274516
 31
0.0
  0
LINE
  8
FRONTVIEW
 10
77.234498
 20
146.381362
 30
0.0
 11
76.756655
 21
146.335454
 31
0.0
  0
LINE
  8
FRONTVIEW
 10
77.510897
 20
146.512528
 30
0.0
 11
77.234498
 21
146.381362
 31
0.0
  0
LINE
  8
FRONTVIEW
 10
77.801292
 20
146.68042
 30
0.0
 11
77.510897
 21
146.512528
 31
0.0
  0
LINE
  8
FRONTVIEW
 10
77.801292
 20
146.68042
 30
0.0
 11
78.612433
 21
146.68042
 31
0.0
  0
LINE
  8
FRONTVIEW
 10
77.192515
 20
147.380913
 30
0.0
 11
75.646375
 21
147.380913
 31
0.0
  0
LINE
  8
FRONTVIEW
 10
77.158811
 20
147.063831
 30
0.0
 11
75.707638
 21
147.063831
 31
0.0
  0
LINE
  8
FRONTVIEW
 10
76.100794
 20
147.05949
 30
0.0
 11
76.200173
 21
146.707332
 31
0.0
  0
LINE
  8
FRONTVIEW
 10
76.035208
 20
147.380847
 30
0.0
 11
76.100794
 21
147.05949
 31
0.0
  0
LINE
  8
FRONTVIEW
 10
76.113286
 20
147.720567
 30
0.0
 11
76.035208
 21
147.380847
 31
0.0
  0
LINE
  8
FRONTVIEW
 10
76.289744
 20
148.14948
 30
0.0
 11
76.113286
 21
147.720567
 31
0.0
  0
LINE
  8
FRONTVIEW
 10
76.776542
 20
148.510873
 30
0.0
 11
76.289744
 21
148.14948
 31
0.0
  0
LINE
  8
FRONTVIEW
 10
76.500557
 20
147.05949
 30
0.0
 11
76.583321
 21
146.807651
 31
0.0
  0
LINE
  8
FRONTVIEW
 10
76.456833
 20
147.380847
 30
0.0
 11
76.500557
 21
147.05949
 31
0.0
  0
LINE
  8
FRONTVIEW
 10
76.506803
 20
147.720567
 30
0.0
 11
76.456833
 21
147.380847
 31
0.0
  0
LINE
  8
FRONTVIEW
 10
76.600498
 20
148.14948
 30
0.0
 11
76.506803
 21
147.720567
 31
0.0
  0
LINE
  8
FRONTVIEW
 10
76.888906
 20
148.533878
 30
0.0
 11
76.600498
 21
148.14948
 31
0.0
  0
LINE
  8
FRONTVIEW
 10
76.889389
 20
147.380847
 30
0.0
 11
76.943405
 21
146.934917
 31
0.0
  0
LINE
  8
FRONTVIEW
 10
76.964707
 20
148.109852
 30
0.0
 11
76.889389
 21
147.380847
 31
0.0
  0
LINE
  8
FRONTVIEW
 10
77.143928
 20
147.720568
 30
0.0
 11
75.713523
 21
147.720568
 31
0.0
  0
LINE
  8
FRONTVIEW
 10
76.946232
 20
148.151031
 30
0.0
 11
76.034024
 21
148.151031
 31
0.0
  0
LINE
  8
FRONTVIEW
 10
78.144896
 20
147.038504
 30
0.0
 11
78.880726
 21
147.038504
 31
0.0
  0
LINE
  8
FRONTVIEW
 10
77.818527
 20
146.828638
 30
0.0
 11
78.144896
 21
147.038504
 31
0.0
  0
LINE
  8
FRONTVIEW
 10
77.751729
 20
146.254201
 30
0.0
 11
77.818527
 21
146.828638
 31
0.0
  0
LINE
  8
FRONTVIEW
 10
77.743422
 20
147.437
 30
0.0
 11
78.188107
 21
147.376764
 31
0.0
  0
LINE
  8
FRONTVIEW
 10
78.054325
 20
146.684355
 30
0.0
 11
77.951261
 21
146.302662
 31
0.0
  0
LINE
  8
FRONTVIEW
 10
78.463972
 20
146.692373
 30
0.0
 11
78.385379
 21
146.503346
 31
0.0
  0
LINE
  8
FRONTVIEW
 10
78.557666
 20
147.066196
 30
0.0
 11
78.463972
 21
146.692373
 31
0.0
  0
LINE
  8
FRONTVIEW
 10
78.598267
 20
147.388865
 30
0.0
 11
78.557666
 21
147.066196
 31
0.0
  0
LINE
  8
FRONTVIEW
 10
78.437441
 20
148.131758
 30
0.0
 11
78.386224
 21
148.274281
 31
0.0
  0
LINE
  8
FRONTVIEW
 10
78.437441
 20
148.131758
 30
0.0
 11
78.546221
 21
147.711386
 31
0.0
  0
LINE
  8
FRONTVIEW
 10
78.191744
 20
147.376912
 30
0.0
 11
78.9413
 21
147.376912
 31
0.0
  0
LINE
  8
FRONTVIEW
 10
77.94033
 20
148.137675
 30
0.0
 11
78.568508
 21
148.137675
 31
0.0
  0
LINE
  8
FRONTVIEW
 10
78.166952
 20
147.719307
 30
0.0
 11
78.188107
 21
147.376764
 31
0.0
  0
LINE
  8
FRONTVIEW
 10
78.058172
 20
148.13968
 30
0.0
 11
78.166952
 21
147.719307
 31
0.0
  0
LINE
  8
FRONTVIEW
 10
78.14802
 20
147.058179
 30
0.0
 11
78.054325
 21
146.684355
 31
0.0
  0
LINE
  8
FRONTVIEW
 10
78.188621
 20
147.380847
 30
0.0
 11
78.14802
 21
147.058179
 31
0.0
  0
LINE
  8
FRONTVIEW
 10
78.546221
 20
147.711386
 30
0.0
 11
78.597753
 21
147.384782
 31
0.0
  0
LINE
  8
FRONTVIEW
 10
78.05901
 20
148.137675
 30
0.0
 11
77.913783
 21
148.485265
 31
0.0
  0
LINE
  8
FRONTVIEW
 10
78.877689
 20
147.719428
 30
0.0
 11
77.862251
 21
147.719256
 31
0.0
  0
LINE
  8
FRONTVIEW
 10
77.268691
 20
148.71048
 30
0.0
 11
77.32076
 21
148.277834
 31
0.0
  0
LINE
  8
FRONTVIEW
 10
77.60244
 20
148.867408
 30
0.0
 11
77.648396
 21
148.577337
 31
0.0
  0
LINE
  8
FRONTVIEW
 10
77.480814
 20
148.513663
 30
0.0
 11
77.450309
 21
148.078322
 31
0.0
  0
LINE
  8
FRONTVIEW
 10
77.518847
 20
148.232554
 30
0.0
 11
77.480814
 21
148.513663
 31
0.0
  0
LINE
  8
FRONTVIEW
 10
77.526374
 20
148.577337
 30
0.0
 11
77.518847
 21
148.232554
 31
0.0
  0
LINE
  8
FRONTVIEW
 10
77.571934
 20
148.368864
 30
0.0
 11
77.526374
 21
148.577337
 31
0.0
  0
ARC
  8
FRONTVIEW
 10
78.435738
 20
148.57755
 30
0.0
 40
0.888655
 50
160.56057
 51
193.581845
  0
LINE
  8
FRONTVIEW
 10
77.467344
 20
148.644077
 30
0.0
 11
77.517008
 21
149.398159
 31
0.0
  0
LINE
  8
FRONTVIEW
 10
77.43016
 20
149.353891
 30
0.0
 11
77.467344
 21
148.644077
 31
0.0
  0
LINE
  8
FRONTVIEW
 10
77.392722
 20
148.843589
 30
0.0
 11
77.43016
 21
149.353891
 31
0.0
  0
LINE
  8
FRONTVIEW
 10
77.287283
 20
149.198648
 30
0.0
 11
77.392722
 21
148.843589
 31
0.0
  0
LINE
  8
FRONTVIEW
 10
77.268691
 20
148.71048
 30
0.0
 11
77.287283
 21
149.198648
 31
0.0
  0
LINE
  8
FRONTVIEW
 10
77.243732
 20
148.976698
 30
0.0
 11
77.268691
 21
148.71048
 31
0.0
  0
LINE
  8
FRONTVIEW
 10
77.206548
 20
148.62922
 30
0.0
 11
77.243732
 21
148.976698
 31
0.0
  0
LINE
  8
FRONTVIEW
 10
77.181589
 20
148.887858
 30
0.0
 11
77.206548
 21
148.62922
 31
0.0
  0
LINE
  8
FRONTVIEW
 10
77.116135
 20
148.572823
 30
0.0
 11
77.181589
 21
148.887858
 31
0.0
  0
ARC
  8
FRONTVIEW
 10
78.50547
 20
149.28157
 30
0.0
 40
0.995314
 50
173.273027
 51
204.21668
  0
ARC
  8
FRONTVIEW
 10
77.908307
 20
148.985197
 30
0.0
 40
0.330107
 50
118.145776
 51
199.813636
  0
LINE
  8
FRONTVIEW
 10
76.66509
 20
146.495837
 30
0.0
 11
76.661779
 21
146.566182
 31
0.0
  0
LINE
  8
FRONTVIEW
 10
76.737166
 20
146.401842
 30
0.0
 11
76.69769
 21
146.503417
 31
0.0
  0
LINE
  8
FRONTVIEW
 10
76.632236
 20
146.818149
 30
0.0
 11
76.001601
 21
146.656402
 31
0.0
  0
LINE
  8
FRONTVIEW
 10
77.088884
 20
148.194114
 30
0.0
 11
77.116135
 21
148.572823
 31
0.0
  0
LINE
  8
FRONTVIEW
 10
77.052719
 20
148.486408
 30
0.0
 11
77.088884
 21
148.194114
 31
0.0
  0
LINE
  8
FRONTVIEW
 10
77.007131
 20
148.140143
 30
0.0
 11
77.052719
 21
148.486408
 31
0.0
  0
LINE
  8
FRONTVIEW
 10
76.979879
 20
148.313275
 30
0.0
 11
77.007131
 21
148.140143
 31
0.0
  0
LINE
  8
FRONTVIEW
 10
76.943714
 20
148.140143
 30
0.0
 11
76.979879
 21
148.313275
 31
0.0
  0
ARC
  8
FRONTVIEW
 10
78.07953
 20
149.078855
 30
0.0
 40
0.381919
 50
148.875368
 51
216.031052
  0
ARC
  8
FRONTVIEW
 10
75.854453
 20
147.362809
 30
0.0
 40
1.338185
 50
342.873466
 51
35.512937
  0
ARC
  8
FRONTVIEW
 10
76.506309
 20
148.169651
 30
0.0
 40
1.437784
 50
329.36484
 51
28.431967
  0
LINE
  8
FRONTVIEW
 10
76.898126
 20
146.923666
 30
0.0
 11
76.632236
 21
146.818149
 31
0.0
  0
LINE
  8
FRONTVIEW
 10
77.061633
 20
146.964296
 30
0.0
 11
76.898126
 21
146.923666
 31
0.0
  0
ARC
  8
FRONTVIEW
 10
77.100933
 20
146.910549
 30
0.0
 40
0.066582
 50
295.777135
 51
126.174908
  0
LINE
  8
FRONTVIEW
 10
76.802619
 20
146.769635
 30
0.0
 11
77.129888
 21
146.850592
 31
0.0
  0
ARC
  8
FRONTVIEW
 10
77.046742
 20
147.435305
 30
0.0
 40
0.709022
 50
249.86037
 51
306.718536
  0
LINE
  8
FRONTVIEW
 10
77.416153
 20
147.23203
 30
0.0
 11
77.470655
 21
146.866966
 31
0.0
  0
LINE
  8
FRONTVIEW
 10
77.477532
 20
147.264473
 30
0.0
 11
77.416153
 21
147.23203
 31
0.0
  0
LINE
  8
FRONTVIEW
 10
77.532034
 20
147.240217
 30
0.0
 11
77.477532
 21
147.264473
 31
0.0
  0
LINE
  8
FRONTVIEW
 10
77.57966
 20
147.1347
 30
0.0
 11
77.634162
 21
146.761449
 31
0.0
  0
LINE
  8
FRONTVIEW
 10
77.532034
 20
147.2481
 30
0.0
 11
77.57966
 21
147.1347
 31
0.0
  0
LINE
  8
FRONTVIEW
 10
77.559285
 20
147.280544
 30
0.0
 11
77.532034
 21
147.2481
 31
0.0
  0
LINE
  8
FRONTVIEW
 10
77.606911
 20
147.296917
 30
0.0
 11
77.559285
 21
147.280544
 31
0.0
  0
LINE
  8
FRONTVIEW
 10
77.647915
 20
147.256287
 30
0.0
 11
77.606911
 21
147.296917
 31
0.0
  0
LINE
  8
FRONTVIEW
 10
77.729669
 20
146.858779
 30
0.0
 11
77.647915
 21
147.256287
 31
0.0
  0
LINE
  8
FRONTVIEW
 10
77.715916
 20
147.32936
 30
0.0
 11
77.831797
 21
147.38606
 31
0.0
  0
LINE
  8
FRONTVIEW
 10
77.695541
 20
147.207773
 30
0.0
 11
77.715916
 21
147.32936
 31
0.0
  0
LINE
  8
FRONTVIEW
 10
77.729669
 20
146.858779
 30
0.0
 11
77.695541
 21
147.207773
 31
0.0
  0
LINE
  8
FRONTVIEW
 10
77.893176
 20
147.020996
 30
0.0
 11
77.831797
 21
147.38606
 31
0.0
  0
ARC
  8
FRONTVIEW
 10
77.946987
 20
147.256912
 30
0.0
 40
0.100012
 50
319.077108
 51
161.449207
  0
ARC
  8
FRONTVIEW
 10
76.603099
 20
148.060205
 30
0.0
 40
1.664235
 50
274.559046
 51
328.530496
  0
LINE
  8
FRONTVIEW
 10
76.573637
 20
146.324144
 30
0.0
 11
76.735383
 21
146.401236
 31
0.0
  0
TEXT
  8
FRONTVIEW
 10
80.890393
 20
146.847234
 30
0.0
 40
1.455764
  1
Brooks
  7
ROMANT
  0
TEXT
  8
FRONTVIEW
 10
65.352178
 20
146.833313
 30
0.0
 40
1.455764
  1
Cleaver
  7
ROMANT
  0
LINE
  8
CAPTIONS
  6
DASHED
 10
318.585923
 20
228.024126
 30
0.0
 11
448.784091
 21
228.024126
 31
0.0
  0
ARC
  8
PLANVIEW
  6
DASHED
 10
464.751907
 20
286.966277
 30
0.0
 40
32.450296
 50
297.642504
 51
66.432236
  0
CIRCLE
  8
PLANVIEW
  6
DASHED
 10
484.187149
 20
260.979876
 30
0.0
 40
1.34598
  0
LINE
  8
PLANVIEW
  6
DASHED
 10
448.69793
 20
236.623747
 30
0.0
 11
449.430487
 21
235.943042
 31
0.0
  0
LINE
  8
PLANVIEW
  6
DASHED
 10
489.558252
 20
254.392762
 30
0.0
 11
493.128052
 21
251.075637
 31
0.0
  0
LINE
  8
PLANVIEW
  6
DASHED
 10
492.050832
 20
249.916361
 30
0.0
 11
493.209984
 21
248.839256
 31
0.0
  0
LINE
  8
PLANVIEW
  6
DASHED
 10
495.797215
 20
253.948118
 30
0.0
 11
496.956367
 21
252.871012
 31
0.0
  0
LINE
  8
PLANVIEW
  6
DASHED
 10
495.797215
 20
253.948118
 30
0.0
 11
492.050832
 21
249.916361
 31
0.0
  0
LINE
  8
PLANVIEW
  6
DASHED
 10
496.956367
 20
252.871012
 30
0.0
 11
493.209984
 21
248.839256
 31
0.0
  0
LINE
  8
PLANVIEW
  6
DASHED
 10
491.150194
 20
256.105967
 30
0.0
 11
494.719994
 21
252.788842
 31
0.0
  0
LINE
  8
PLANVIEW
  6
DASHED
 10
459.463212
 20
229.35061
 30
0.0
 11
450.791899
 21
237.408156
 31
0.0
  0
ARC
  8
PLANVIEW
  6
DASHED
 10
462.866741
 20
233.013395
 30
0.0
 40
5.0
 50
227.101192
 51
317.101192
  0
LINE
  8
PLANVIEW
  6
DASHED
 10
466.529526
 20
229.609867
 30
0.0
 11
514.178824
 21
280.888759
 31
0.0
  0
LINE
  8
PLANVIEW
  6
DASHED
 10
506.60976
 20
297.477835
 30
0.0
 11
449.430487
 21
235.943042
 31
0.0
  0
LINE
  8
PLANVIEW
  6
DASHED
 10
505.877203
 20
298.158541
 30
0.0
 11
448.69793
 21
236.623747
 31
0.0
  0
LINE
  8
PLANVIEW
  6
DASHED
 10
513.919566
 20
287.955072
 30
0.0
 11
505.248252
 21
296.012618
 31
0.0
  0
ARC
  8
PLANVIEW
  6
DASHED
 10
510.516038
 20
284.292287
 30
0.0
 40
5.0
 50
317.101192
 51
47.101192
  0
LINE
  8
PLANVIEW
  6
DASHED
 10
505.877203
 20
298.158541
 30
0.0
 11
506.60976
 21
297.477835
 31
0.0
  0
TEXT
  8
CAPTIONS
  6
CONTINUOUS
 10
318.780352
 20
229.582413
 30
0.0
 40
5.0
  1
Rear door clearance to side
  7
ROMANS
  0
LINE
  8
PLANVIEW
 10
464.571364
 20
289.3789
 30
0.0
 11
481.374558
 21
314.874882
 31
0.0
  0
CIRCLE
  8
PLANVIEW
 10
468.232107
 20
286.966277
 30
0.0
 40
2.992892
  0
ARC
  8
PLANVIEW
 10
468.232107
 20
286.966277
 30
0.0
 40
4.384266
 50
146.613016
 51
337.233845
  0
LINE
  8
PLANVIEW
 10
472.274803
 20
285.269694
 30
0.0
 11
484.091001
 21
313.425864
 31
0.0
  0
ARC
  8
PLANVIEW
 10
482.665436
 20
314.024126
 30
0.0
 40
1.546012
 50
337.233845
 51
146.613016
  0
CIRCLE
  8
PLANVIEW
 10
482.665436
 20
314.024126
 30
0.0
 40
0.658713
  0
LINE
  8
PLANVIEW
 10
473.512676
 20
288.219353
 30
0.0
 11
473.512676
 21
272.024126
 31
0.0
  0
LINE
  8
PLANVIEW
 10
472.512676
 20
285.836508
 30
0.0
 11
472.512676
 21
272.024126
 31
0.0
  0
LINE
  8
PLANVIEW
 10
471.512676
 20
284.057729
 30
0.0
 11
471.512676
 21
272.024126
 31
0.0
  0
LINE
  8
PLANVIEW
 10
472.512676
 20
356.024126
 30
0.0
 11
472.512676
 21
301.428488
 31
0.0
  0
LINE
  8
PLANVIEW
 10
473.512676
 20
356.024126
 30
0.0
 11
473.512676
 21
302.945817
 31
0.0
  0
LINE
  8
PLANVIEW
 10
471.512676
 20
356.024126
 30
0.0
 11
471.512676
 21
299.911158
 31
0.0
  0
LINE
  8
PLANVIEW
  6
DASHED
 10
515.512676
 20
292.308283
 30
0.0
 11
515.512676
 21
342.651691
 31
0.0
  0
LINE
  8
PLANVIEW
  6
DASHED
 10
629.512676
 20
275.524126
 30
0.0
 11
518.622775
 21
275.524126
 31
0.0
  0
LINE
  8
PLANVIEW
 10
485.349725
 20
354.023985
 30
0.0
 11
473.512676
 21
354.023985
 31
0.0
  0
ARC
  8
PLANVIEW
 10
485.349725
 20
279.024126
 30
0.0
 40
5.0
 50
270.0
 51
0.0
  0
LINE
  8
PLANVIEW
 10
485.349725
 20
274.024126
 30
0.0
 11
473.512676
 21
274.024126
 31
0.0
  0
LINE
  8
PLANVIEW
 10
490.349725
 20
279.024126
 30
0.0
 11
490.349725
 21
349.023985
 31
0.0
  0
ARC
  8
PLANVIEW
 10
485.349725
 20
349.023985
 30
0.0
 40
5.0
 50
0.0
 51
90.0
  0
ARC
  8
RIGHTSIDE
 10
342.837177
 20
140.253541
 30
0.0
 40
2.0
 50
90.0
 51
179.850032
  0
ARC
  8
RIGHTSIDE
 10
342.797975
 20
125.27631
 30
0.0
 40
2.0
 50
179.850032
 51
269.957792
  0
ARC
  8
FRONTVIEW
 10
77.441201
 20
108.866746
 30
0.0
 40
42.0
 50
108.826818
 51
71.201999
  0
ARC
  8
FRONTVIEW
 10
77.441201
 20
108.866746
 30
0.0
 40
39.0
 50
110.336466
 51
69.694859
  0
ARC
  8
RIGHTSIDE
 10
312.012676
 20
176.228943
 30
0.0
 40
27.054387
 50
249.628013
 51
290.371987
  0
ENDSEC
  0
EOF
