  0
SECTION
  2
HEADER
  9
$ACADVER
  1
AC1009
  9
$INSBASE
 10
0.0
 20
0.0
 30
0.0
  9
$EXTMIN
 10
37.102682
 20
0.765793
 30
0.0
  9
$EXTMAX
 10
810.22214
 20
508.426259
 30
0.0
  9
$LIMMIN
 10
0.0
 20
0.0
  9
$LIMMAX
 10
700.0
 20
550.0
  9
$ORTHOMODE
 70
     1
  9
$REGENMODE
 70
     1
  9
$FILLMODE
 70
     1
  9
$QTEXTMODE
 70
     0
  9
$MIRRTEXT
 70
     1
  9
$DRAGMODE
 70
     2
  9
$LTSCALE
 40
8.0
  9
$OSMODE
 70
     0
  9
$ATTMODE
 70
     1
  9
$TEXTSIZE
 40
4.98
  9
$TRACEWID
 40
0.05
  9
$TEXTSTYLE
  7
ROMANT
  9
$CLAYER
  8
0
  9
$CELTYPE
  6
BYLAYER
  9
$CECOLOR
 62
   256
  9
$DIMSCALE
 40
1.0
  9
$DIMASZ
 40
5.0
  9
$DIMEXO
 40
0.0625
  9
$DIMDLI
 40
0.38
  9
$DIMRND
 40
0.0
  9
$DIMDLE
 40
0.0
  9
$DIMEXE
 40
0.18
  9
$DIMTP
 40
0.0
  9
$DIMTM
 40
0.0
  9
$DIMTXT
 40
4.0
  9
$DIMCEN
 40
0.09
  9
$DIMTSZ
 40
0.0
  9
$DIMTOL
 70
     0
  9
$DIMLIM
 70
     0
  9
$DIMTIH
 70
     1
  9
$DIMTOH
 70
     1
  9
$DIMSE1
 70
     0
  9
$DIMSE2
 70
     0
  9
$DIMTAD
 70
     0
  9
$DIMZIN
 70
     0
  9
$DIMBLK
  1

  9
$DIMASO
 70
     1
  9
$DIMSHO
 70
     0
  9
$DIMPOST
  1

  9
$DIMAPOST
  1

  9
$DIMALT
 70
     0
  9
$DIMALTD
 70
     2
  9
$DIMALTF
 40
25.4
  9
$DIMLFAC
 40
1.0
  9
$DIMTOFL
 70
     0
  9
$DIMTVP
 40
0.0
  9
$DIMTIX
 70
     1
  9
$DIMSOXD
 70
     0
  9
$DIMSAH
 70
     0
  9
$DIMBLK1
  1

  9
$DIMBLK2
  1

  9
$DIMSTYLE
  2
*UNNAMED
  9
$DIMCLRD
 70
     0
  9
$DIMCLRE
 70
     0
  9
$DIMCLRT
 70
     0
  9
$DIMTFAC
 40
1.0
  9
$DIMGAP
 40
0.09
  9
$LUNITS
 70
     2
  9
$LUPREC
 70
     4
  9
$AXISMODE
 70
     0
  9
$AXISUNIT
 10
0.0
 20
0.0
  9
$SKETCHINC
 40
0.1
  9
$FILLETRAD
 40
3.0
  9
$AUNITS
 70
     0
  9
$AUPREC
 70
     0
  9
$MENU
  1
acad
  9
$ELEVATION
 40
0.0
  9
$PELEVATION
 40
0.0
  9
$THICKNESS
 40
0.0
  9
$LIMCHECK
 70
     0
  9
$BLIPMODE
 70
     0
  9
$CHAMFERA
 40
0.0
  9
$CHAMFERB
 40
0.0
  9
$SKPOLY
 70
     0
  9
$TDCREATE
 40
2449708.558014351
  9
$TDUPDATE
 40
2449745.645748263
  9
$TDINDWG
 40
0.0340842593
  9
$TDUSRTIMER
 40
0.0340842593
  9
$USRTIMER
 70
     1
  9
$ANGBASE
 50
0.0
  9
$ANGDIR
 70
     0
  9
$PDMODE
 70
     0
  9
$PDSIZE
 40
0.0
  9
$PLINEWID
 40
0.0
  9
$COORDS
 70
     2
  9
$SPLFRAME
 70
     0
  9
$SPLINETYPE
 70
     6
  9
$SPLINESEGS
 70
     8
  9
$ATTDIA
 70
     1
  9
$ATTREQ
 70
     1
  9
$HANDLING
 70
     0
  9
$HANDSEED
  5
0
  9
$SURFTAB1
 70
     6
  9
$SURFTAB2
 70
     6
  9
$SURFTYPE
 70
     6
  9
$SURFU
 70
     6
  9
$SURFV
 70
     6
  9
$UCSNAME
  2

  9
$UCSORG
 10
0.0
 20
0.0
 30
0.0
  9
$UCSXDIR
 10
1.0
 20
0.0
 30
0.0
  9
$UCSYDIR
 10
0.0
 20
1.0
 30
0.0
  9
$PUCSNAME
  2

  9
$PUCSORG
 10
0.0
 20
0.0
 30
0.0
  9
$PUCSXDIR
 10
1.0
 20
0.0
 30
0.0
  9
$PUCSYDIR
 10
0.0
 20
1.0
 30
0.0
  9
$USERI1
 70
     0
  9
$USERI2
 70
     0
  9
$USERI3
 70
     0
  9
$USERI4
 70
     0
  9
$USERI5
 70
     0
  9
$USERR1
 40
0.0
  9
$USERR2
 40
0.0
  9
$USERR3
 40
0.0
  9
$USERR4
 40
0.0
  9
$USERR5
 40
0.0
  9
$WORLDVIEW
 70
     1
  9
$SHADEDGE
 70
     3
  9
$SHADEDIF
 70
    70
  9
$TILEMODE
 70
     1
  9
$MAXACTVP
 70
    16
  9
$PINSBASE
 10
0.0
 20
0.0
 30
0.0
  9
$PLIMCHECK
 70
     0
  9
$PEXTMIN
 10
1.000000E+20
 20
1.000000E+20
 30
1.000000E+20
  9
$PEXTMAX
 10
-1.000000E+20
 20
-1.000000E+20
 30
-1.000000E+20
  9
$PLIMMIN
 10
0.0
 20
0.0
  9
$PLIMMAX
 10
12.0
 20
9.0
  9
$UNITMODE
 70
     0
  9
$VISRETAIN
 70
     0
  0
ENDSEC
  0
SECTION
  2
TABLES
  0
TABLE
  2
VPORT
 70
     2
  0
VPORT
  2
*ACTIVE
 70
     0
 10
0.0
 20
0.0
 11
1.0
 21
1.0
 12
423.662411
 22
287.844088
 13
0.0
 23
0.0
 14
1.0
 24
1.0
 15
0.0
 25
0.0
 16
0.0
 26
0.0
 36
1.0
 17
0.0
 27
0.0
 37
0.0
 40
573.970363
 41
1.346968
 42
50.0
 43
0.0
 44
0.0
 50
0.0
 51
0.0
 71
     0
 72
   100
 73
     1
 74
     0
 75
     0
 76
     0
 77
     0
 78
     2
  0
ENDTAB
  0
TABLE
  2
LTYPE
 70
     3
  0
LTYPE
  2
CONTINUOUS
 70
    64
  3
Solid line
 72
    65
 73
     0
 40
0.0
  0
LTYPE
  2
DASHED
 70
    64
  3
__ __ __ __ __ __ __ __ __ __ __ __ __ __ __
 72
    65
 73
     2
 40
0.75
 49
0.5
 49
-0.25
  0
LTYPE
  2
CENTER
 70
    64
  3
____ _ ____ _ ____ _ ____ _ ____ _ ____ _ ____
 72
    65
 73
     4
 40
2.0
 49
1.25
 49
-0.25
 49
0.25
 49
-0.25
  0
ENDTAB
  0
TABLE
  2
LAYER
 70
     5
  0
LAYER
  2
0
 70
    64
 62
     7
  6
CONTINUOUS
  0
LAYER
  2
RIGHTSIDE
 70
    64
 62
     1
  6
CONTINUOUS
  0
LAYER
  2
PLANVIEW
 70
    64
 62
     2
  6
CONTINUOUS
  0
LAYER
  2
FRONTVIEW
 70
    64
 62
     3
  6
CONTINUOUS
  0
LAYER
  2
CAPTIONS
 70
    64
 62
     4
  6
CONTINUOUS
  0
ENDTAB
  0
TABLE
  2
STYLE
 70
     4
  0
STYLE
  2
STANDARD
 70
    64
 40
0.0
 41
1.0
 50
0.0
 71
     0
 42
4.98
  3
txt
  4

  0
STYLE
  2
ROMANS
 70
    64
 40
0.0
 41
1.0
 50
0.0
 71
     0
 42
4.98
  3
ROMANS
  4

  0
STYLE
  2
ROMANT
 70
    64
 40
0.0
 41
1.0
 50
0.0
 71
     0
 42
4.98
  3
ROMANT
  4

  0
STYLE
  2
ROMAND
 70
    64
 40
0.0
 41
1.0
 50
0.0
 71
     0
 42
2.0
  3
ROMAND
  4

  0
ENDTAB
  0
TABLE
  2
VIEW
 70
     0
  0
ENDTAB
  0
TABLE
  2
UCS
 70
     0
  0
ENDTAB
  0
TABLE
  2
APPID
 70
     1
  0
APPID
  2
ACAD
 70
    64
  0
ENDTAB
  0
TABLE
  2
DIMSTYLE
 70
     0
  0
ENDTAB
  0
ENDSEC
  0
SECTION
  2
BLOCKS
  0
BLOCK
  8
0
  2
GETDAT
 70
    66
 10
0.0
 20
0.0
 30
0.0
  1
GETDAT
  3
GETDAT
  0
ATTDEF
  8
0
 10
0.0
 20
0.0
 30
0.0
 40
1.0
  1
DIMDIAG
  3
DRAWING NAME.(10 CHARS): 
  2
DWGNAM
 70
     1
  0
ATTDEF
  8
0
 10
0.0
 20
0.0
 30
0.0
 40
1.0
  1
B
  3
DRAWING SIZE...(1 CHAR): 
  2
DWGSIZ
 70
     1
  0
ATTDEF
  8
0
 10
0.0
 20
0.0
 30
0.0
 40
1.0
  1
00
  3
REVISION......(2 CHARS): 
  2
DWGREV
 70
     1
  0
ATTDEF
  8
0
 10
0.0
 20
0.0
 30
0.0
 40
1.0
  1
01
  3
SHEET NUMBER..(2 CHARS): 
  2
DWGSHT
 70
     1
  0
ATTDEF
  8
0
 10
0.0
 20
0.0
 30
0.0
 40
1.0
  1
01
  3
OF............(2 CHARS): 
  2
DWGOF
 70
     1
  0
ATTDEF
  8
0
 10
0.0
 20
0.0
 30
0.0
 40
1.0
  1
 
  3
DISTRIBUTION..(2 CHARS): 
  2
DWGDIST
 70
     1
  0
ATTDEF
  8
0
 10
0.0
 20
0.0
 30
0.0
 40
1.0
  1
01
  3
QUANTITY......(2 CHARS): 
  2
DWGQUAN
 70
     1
  0
ATTDEF
  8
0
 10
0.0
 20
0.0
 30
0.0
 40
1.0
  1
 
  3
DESCRIPTION..(31 CHARS): 
  2
DWGDESC
 70
     1
  0
ATTDEF
  8
0
 10
0.0
 20
0.0
 30
0.0
 40
1.0
  1
 
  3
YOUR NAME....(17 CHARS): 
  2
DRWN
 70
     1
  0
ATTDEF
  8
0
 10
0.0
 20
0.0
 30
0.0
 40
1.0
  1
10/14/92
  3
TODAY'S DATE..(8 CHARS): 
  2
DATE
 70
     1
  0
ATTDEF
  8
0
 10
0.0
 20
0.0
 30
0.0
 40
1.0
  1
01 
  3
FILE..........(3 CHARS): 
  2
FILE
 70
     1
  0
ENDBLK
  8
0
  0
ENDSEC
  0
SECTION
  2
ENTITIES
  0
LINE
  8
RIGHTSIDE
 10
602.455356
 20
75.304775
 30
0.0
 11
615.455356
 21
75.304775
 31
0.0
  0
LINE
  8
RIGHTSIDE
 10
380.455356
 20
72.04381
 30
0.0
 11
380.455356
 21
112.597326
 31
0.0
  0
LINE
  8
RIGHTSIDE
 10
380.455356
 20
176.304775
 30
0.0
 11
378.455356
 21
176.304775
 31
0.0
  0
LINE
  8
RIGHTSIDE
 10
379.455356
 20
176.304775
 30
0.0
 11
379.455356
 21
134.912225
 31
0.0
  0
LINE
  8
RIGHTSIDE
 10
378.455356
 20
176.304775
 30
0.0
 11
378.455356
 21
134.912225
 31
0.0
  0
LINE
  8
RIGHTSIDE
 10
405.455363
 20
180.055699
 30
0.0
 11
378.455356
 21
180.055699
 31
0.0
  0
LINE
  8
RIGHTSIDE
 10
405.455363
 20
181.04381
 30
0.0
 11
378.455356
 21
181.04381
 31
0.0
  0
LINE
  8
RIGHTSIDE
  6
DASHED
 10
192.455356
 20
172.804775
 30
0.0
 11
192.455356
 21
74.804634
 31
0.0
  0
LINE
  8
RIGHTSIDE
 10
378.455356
 20
112.597326
 30
0.0
 11
378.455356
 21
72.04381
 31
0.0
  0
LINE
  8
RIGHTSIDE
 10
380.455356
 20
134.912225
 30
0.0
 11
380.455356
 21
176.304775
 31
0.0
  0
LINE
  8
RIGHTSIDE
 10
411.35706
 20
90.934938
 30
0.0
 11
411.35706
 21
65.04381
 31
0.0
  0
LINE
  8
RIGHTSIDE
 10
402.35706
 20
90.934938
 30
0.0
 11
402.35706
 21
65.04381
 31
0.0
  0
LINE
  8
RIGHTSIDE
 10
600.455356
 20
164.063785
 30
0.0
 11
600.455356
 21
72.04381
 31
0.0
  0
LINE
  8
RIGHTSIDE
 10
601.455356
 20
80.150817
 30
0.0
 11
601.455356
 21
72.04381
 31
0.0
  0
LINE
  8
RIGHTSIDE
 10
602.455356
 20
171.93697
 30
0.0
 11
602.455356
 21
72.04381
 31
0.0
  0
LINE
  8
PLANVIEW
  6
DASHED
 10
806.455356
 20
405.712454
 30
0.0
 11
806.455356
 21
311.212454
 31
0.0
  0
LINE
  8
PLANVIEW
 10
383.303481
 20
307.712454
 30
0.0
 11
417.635261
 21
307.712454
 31
0.0
  0
LINE
  8
PLANVIEW
 10
379.455356
 20
409.712454
 30
0.0
 11
379.455356
 21
363.811474
 31
0.0
  0
LINE
  8
PLANVIEW
 10
378.455356
 20
409.712454
 30
0.0
 11
378.455356
 21
315.929267
 31
0.0
  0
LINE
  8
PLANVIEW
  6
DASHED
 10
192.455356
 20
407.712454
 30
0.0
 11
192.455356
 21
309.712454
 31
0.0
  0
LINE
  8
PLANVIEW
 10
380.455356
 20
315.929267
 30
0.0
 11
380.455356
 21
351.641385
 31
0.0
  0
LINE
  8
PLANVIEW
 10
602.455356
 20
409.712454
 30
0.0
 11
378.455356
 21
409.712454
 31
0.0
  0
LINE
  8
PLANVIEW
 10
620.455356
 20
316.212454
 30
0.0
 11
620.455356
 21
358.712454
 31
0.0
  0
LINE
  8
PLANVIEW
 10
602.455356
 20
409.712454
 30
0.0
 11
602.455356
 21
339.289531
 31
0.0
  0
LINE
  8
PLANVIEW
 10
380.455356
 20
365.783522
 30
0.0
 11
380.455356
 21
409.712454
 31
0.0
  0
LINE
  8
PLANVIEW
  6
DASHED
 10
806.455356
 20
311.212454
 30
0.0
 11
660.72484
 21
311.212454
 31
0.0
  0
LINE
  8
RIGHTSIDE
 10
600.955356
 20
65.04381
 30
0.0
 11
379.955356
 21
65.04381
 31
0.0
  0
LINE
  8
RIGHTSIDE
 10
380.455356
 20
72.04381
 30
0.0
 11
378.455356
 21
72.04381
 31
0.0
  0
LINE
  8
RIGHTSIDE
  6
DASHED
 10
192.455356
 20
74.804634
 30
0.0
 11
357.94644
 21
74.804634
 31
0.0
  0
LINE
  8
RIGHTSIDE
 10
601.455356
 20
169.938949
 30
0.0
 11
601.455356
 21
80.150817
 31
0.0
  0
LINE
  8
PLANVIEW
  6
DASHED
 10
806.455356
 20
405.712454
 30
0.0
 11
628.869023
 21
405.712454
 31
0.0
  0
ARC
  8
PLANVIEW
 10
612.566157
 20
358.712454
 30
0.0
 40
2.0
 50
340.630729
 51
157.740821
  0
LINE
  8
PLANVIEW
 10
601.455356
 20
409.712454
 30
0.0
 11
601.455356
 21
336.846322
 31
0.0
  0
LINE
  8
RIGHTSIDE
  6
DASHED
 10
806.455356
 20
172.804775
 30
0.0
 11
806.455356
 21
75.304775
 31
0.0
  0
LINE
  8
RIGHTSIDE
 10
379.455356
 20
72.04381
 30
0.0
 11
379.455356
 21
112.597326
 31
0.0
  0
LINE
  8
PLANVIEW
 10
601.455356
 20
321.077173
 30
0.0
 11
601.455356
 21
307.712454
 31
0.0
  0
LINE
  8
PLANVIEW
 10
600.455356
 20
409.712454
 30
0.0
 11
600.455356
 21
334.403114
 31
0.0
  0
LINE
  8
PLANVIEW
 10
602.455356
 20
323.921695
 30
0.0
 11
602.455356
 21
307.712454
 31
0.0
  0
LINE
  8
RIGHTSIDE
  6
DASHED
 10
357.94644
 20
172.804775
 30
0.0
 11
192.455356
 21
172.804775
 31
0.0
  0
LINE
  8
RIGHTSIDE
 10
373.455356
 20
74.804634
 30
0.0
 11
378.455356
 21
74.804634
 31
0.0
  0
LINE
  8
PLANVIEW
  6
CENTER
 10
640.881566
 20
358.712454
 30
0.0
 11
345.608569
 21
358.712454
 31
0.0
  0
LINE
  8
RIGHTSIDE
  6
CENTER
 10
641.559092
 20
123.804775
 30
0.0
 11
351.212505
 21
123.804775
 31
0.0
  0
CIRCLE
  8
PLANVIEW
 10
369.246883
 20
358.712454
 30
0.0
 40
0.7
  0
LINE
  8
RIGHTSIDE
 10
597.736826
 20
173.804775
 30
0.0
 11
596.971826
 21
173.804775
 31
0.0
  0
LINE
  8
RIGHTSIDE
 10
374.062054
 20
129.562822
 30
0.0
 11
374.062054
 21
112.597326
 31
0.0
  0
LINE
  8
RIGHTSIDE
 10
349.455356
 20
129.562822
 30
0.0
 11
368.455356
 21
129.562822
 31
0.0
  0
LINE
  8
RIGHTSIDE
 10
349.455356
 20
140.682168
 30
0.0
 11
366.773845
 21
140.682168
 31
0.0
  0
LINE
  8
RIGHTSIDE
 10
620.455356
 20
100.855651
 30
0.0
 11
631.873019
 21
100.855651
 31
0.0
  0
LINE
  8
RIGHTSIDE
 10
633.455356
 20
102.438157
 30
0.0
 11
633.455356
 21
97.080762
 31
0.0
  0
LINE
  8
RIGHTSIDE
 10
631.873019
 20
102.438157
 30
0.0
 11
631.873019
 21
97.080762
 31
0.0
  0
LINE
  8
RIGHTSIDE
 10
631.873019
 20
102.438157
 30
0.0
 11
633.455356
 21
102.438157
 31
0.0
  0
LINE
  8
RIGHTSIDE
 10
631.873019
 20
97.080762
 30
0.0
 11
633.455356
 21
97.080762
 31
0.0
  0
LINE
  8
RIGHTSIDE
 10
620.455356
 20
98.663267
 30
0.0
 11
631.873019
 21
98.663267
 31
0.0
  0
LINE
  8
RIGHTSIDE
 10
402.35706
 20
90.934938
 30
0.0
 11
411.35706
 21
90.934938
 31
0.0
  0
LINE
  8
RIGHTSIDE
 10
383.431467
 20
134.912225
 30
0.0
 11
383.431467
 21
112.597326
 31
0.0
  0
LINE
  8
PLANVIEW
 10
361.054768
 20
402.712454
 30
0.0
 11
361.054768
 21
314.712454
 31
0.0
  0
LINE
  8
PLANVIEW
 10
349.455356
 20
366.611906
 30
0.0
 11
361.054768
 21
366.611906
 31
0.0
  0
LINE
  8
PLANVIEW
 10
378.295459
 20
315.929267
 30
0.0
 11
383.303481
 21
315.929267
 31
0.0
  0
LINE
  8
PLANVIEW
 10
383.303481
 20
315.929267
 30
0.0
 11
383.303481
 21
305.84685
 31
0.0
  0
LINE
  8
PLANVIEW
 10
383.303481
 20
305.84685
 30
0.0
 11
373.337814
 21
305.84685
 31
0.0
  0
ARC
  8
PLANVIEW
 10
190.998125
 20
311.04877
 30
0.0
 40
182.577241
 50
2.923084
 51
15.06845
  0
ARC
  8
PLANVIEW
 10
238.192967
 20
314.971223
 30
0.0
 40
140.105767
 50
0.391792
 51
18.321873
  0
LINE
  8
PLANVIEW
 10
371.196148
 20
358.712454
 30
0.0
 11
371.196148
 21
362.017223
 31
0.0
  0
LINE
  8
PLANVIEW
 10
367.297618
 20
358.513894
 30
0.0
 11
367.297618
 21
362.017223
 31
0.0
  0
LINE
  8
PLANVIEW
 10
367.297618
 20
362.017223
 30
0.0
 11
371.196148
 21
362.017223
 31
0.0
  0
LINE
  8
PLANVIEW
 10
373.337814
 20
305.84685
 30
0.0
 11
373.337814
 21
320.359355
 31
0.0
  0
LINE
  8
PLANVIEW
 10
349.455356
 20
350.813001
 30
0.0
 11
349.455356
 21
366.611906
 31
0.0
  0
LINE
  8
PLANVIEW
 10
349.455356
 20
350.813001
 30
0.0
 11
361.054768
 21
350.813001
 31
0.0
  0
LINE
  8
PLANVIEW
  6
DASHED
 10
271.455356
 20
303.203614
 30
0.0
 11
271.455356
 21
302.203614
 31
0.0
  0
LINE
  8
PLANVIEW
  6
DASHED
 10
271.455356
 20
302.203614
 30
0.0
 11
373.455356
 21
302.203614
 31
0.0
  0
LINE
  8
PLANVIEW
  6
DASHED
 10
271.455356
 20
303.203614
 30
0.0
 11
373.455356
 21
303.203614
 31
0.0
  0
LINE
  8
RIGHTSIDE
 10
349.455356
 20
140.682168
 30
0.0
 11
349.455356
 21
129.562822
 31
0.0
  0
LINE
  8
RIGHTSIDE
 10
361.054768
 20
172.804775
 30
0.0
 11
361.054768
 21
148.760802
 31
0.0
  0
LINE
  8
RIGHTSIDE
 10
368.455356
 20
138.306906
 30
0.0
 11
361.054768
 21
148.760802
 31
0.0
  0
LINE
  8
RIGHTSIDE
 10
377.780301
 20
134.912225
 30
0.0
 11
383.431467
 21
134.912225
 31
0.0
  0
LINE
  8
RIGHTSIDE
 10
371.080567
 20
179.22625
 30
0.0
 11
371.080567
 21
173.091947
 31
0.0
  0
ARC
  8
RIGHTSIDE
 10
286.752245
 20
138.085637
 30
0.0
 40
91.083354
 50
358.003369
 51
21.843806
  0
ARC
  8
RIGHTSIDE
 10
268.324927
 20
135.792835
 30
0.0
 40
105.643459
 50
356.725232
 51
20.128078
  0
LINE
  8
RIGHTSIDE
 10
367.333066
 20
179.22625
 30
0.0
 11
371.080567
 21
179.22625
 31
0.0
  0
LINE
  8
RIGHTSIDE
 10
367.333066
 20
173.179207
 30
0.0
 11
367.333066
 21
179.22625
 31
0.0
  0
LINE
  8
RIGHTSIDE
 10
378.455356
 20
172.804775
 30
0.0
 11
371.094343
 21
172.804775
 31
0.0
  0
LINE
  8
RIGHTSIDE
 10
374.062054
 20
112.597326
 30
0.0
 11
383.431467
 21
112.597326
 31
0.0
  0
LINE
  8
RIGHTSIDE
 10
367.333066
 20
179.22625
 30
0.0
 11
368.13583
 21
179.22625
 31
0.0
  0
LINE
  8
RIGHTSIDE
 10
368.13583
 20
179.22625
 30
0.0
 11
370.008946
 21
179.22625
 31
0.0
  0
LINE
  8
RIGHTSIDE
 10
368.436896
 20
179.22625
 30
0.0
 11
368.436896
 21
180.04381
 31
0.0
  0
LINE
  8
RIGHTSIDE
 10
368.436896
 20
180.04381
 30
0.0
 11
369.928095
 21
180.04381
 31
0.0
  0
LINE
  8
RIGHTSIDE
 10
369.928095
 20
180.04381
 30
0.0
 11
369.928095
 21
179.22625
 31
0.0
  0
LINE
  8
RIGHTSIDE
 10
385.804515
 20
122.230015
 30
0.0
 11
385.804515
 21
90.934938
 31
0.0
  0
LINE
  8
RIGHTSIDE
 10
385.804515
 20
90.934938
 30
0.0
 11
415.774376
 21
90.934938
 31
0.0
  0
LINE
  8
RIGHTSIDE
 10
415.774376
 20
90.934938
 30
0.0
 11
415.774376
 21
122.230015
 31
0.0
  0
LINE
  8
RIGHTSIDE
 10
415.774376
 20
122.230015
 30
0.0
 11
385.804515
 21
122.230015
 31
0.0
  0
LINE
  8
RIGHTSIDE
 10
380.455356
 20
72.04381
 30
0.0
 11
402.35706
 21
72.04381
 31
0.0
  0
LINE
  8
RIGHTSIDE
 10
576.303652
 20
97.589523
 30
0.0
 11
567.303652
 21
97.589523
 31
0.0
  0
LINE
  8
RIGHTSIDE
 10
576.303652
 20
97.589523
 30
0.0
 11
576.303652
 21
65.04381
 31
0.0
  0
LINE
  8
RIGHTSIDE
 10
567.303652
 20
97.589523
 30
0.0
 11
567.303652
 21
65.04381
 31
0.0
  0
LINE
  8
RIGHTSIDE
  6
DASHED
 10
630.666281
 20
172.804775
 30
0.0
 11
806.455356
 21
172.804775
 31
0.0
  0
LINE
  8
RIGHTSIDE
  6
DASHED
 10
630.666281
 20
75.304775
 30
0.0
 11
806.455356
 21
75.304775
 31
0.0
  0
CIRCLE
  8
PLANVIEW
  6
DASHED
 10
618.200683
 20
287.131572
 30
0.0
 40
2.0
  0
ARC
  8
RIGHTSIDE
  6
DASHED
 10
602.519187
 20
124.000975
 30
0.0
 40
52.00577
 50
270.677567
 51
68.341391
  0
CIRCLE
  8
RIGHTSIDE
 10
390.023067
 20
58.760091
 30
0.0
 40
3.139684
  0
LINE
  8
RIGHTSIDE
 10
379.955356
 20
53.04381
 30
0.0
 11
600.955356
 21
53.04381
 31
0.0
  0
ARC
  8
RIGHTSIDE
  6
DASHED
 10
323.09483
 20
123.804775
 30
0.0
 40
51.639474
 50
54.037862
 51
305.962138
  0
LINE
  8
FRONTVIEW
 10
112.875681
 20
180.055699
 30
0.0
 11
113.35634
 21
178.708271
 31
0.0
  0
LINE
  8
FRONTVIEW
 10
88.875681
 20
180.055699
 30
0.0
 11
84.872942
 21
168.834811
 31
0.0
  0
LINE
  8
FRONTVIEW
 10
113.554929
 20
143.657231
 30
0.0
 11
113.554929
 21
138.306906
 31
0.0
  0
LINE
  8
FRONTVIEW
 10
119.745594
 20
138.306906
 30
0.0
 11
113.554929
 21
138.306906
 31
0.0
  0
LINE
  8
FRONTVIEW
 10
119.745594
 20
143.657231
 30
0.0
 11
119.745594
 21
138.306906
 31
0.0
  0
LINE
  8
FRONTVIEW
 10
139.169324
 20
143.657231
 30
0.0
 11
119.745594
 21
143.657231
 31
0.0
  0
LINE
  8
FRONTVIEW
 10
139.169324
 20
143.657231
 30
0.0
 11
139.169324
 21
138.306906
 31
0.0
  0
LINE
  8
FRONTVIEW
 10
145.934232
 20
138.306906
 30
0.0
 11
139.169324
 21
138.306906
 31
0.0
  0
LINE
  8
FRONTVIEW
 10
88.196441
 20
143.657231
 30
0.0
 11
113.554929
 21
143.657231
 31
0.0
  0
LINE
  8
FRONTVIEW
 10
82.005776
 20
138.306906
 30
0.0
 11
88.196441
 21
138.306906
 31
0.0
  0
LINE
  8
FRONTVIEW
 10
88.196441
 20
143.657231
 30
0.0
 11
88.196441
 21
138.306906
 31
0.0
  0
LINE
  8
FRONTVIEW
 10
82.005776
 20
143.657231
 30
0.0
 11
82.005776
 21
138.306906
 31
0.0
  0
LINE
  8
FRONTVIEW
 10
62.582046
 20
143.657231
 30
0.0
 11
62.582046
 21
138.306906
 31
0.0
  0
LINE
  8
FRONTVIEW
 10
55.817137
 20
138.306906
 30
0.0
 11
62.582046
 21
138.306906
 31
0.0
  0
LINE
  8
FRONTVIEW
 10
62.582046
 20
143.657231
 30
0.0
 11
82.005776
 21
143.657231
 31
0.0
  0
LINE
  8
FRONTVIEW
 10
61.188463
 20
148.760802
 30
0.0
 11
140.562906
 21
148.760802
 31
0.0
  0
LINE
  8
FRONTVIEW
  6
CONTINUOUS
 10
100.238768
 20
180.04381
 30
0.0
 11
101.512603
 21
180.04381
 31
0.0
  0
LINE
  8
FRONTVIEW
  6
CONTINUOUS
 10
100.238768
 20
180.04381
 30
0.0
 11
100.238768
 21
179.182838
 31
0.0
  0
LINE
  8
FRONTVIEW
  6
CONTINUOUS
 10
101.512603
 20
180.04381
 30
0.0
 11
101.512603
 21
179.182838
 31
0.0
  0
LINE
  8
FRONTVIEW
 10
97.23315
 20
174.879667
 30
0.0
 11
104.518221
 21
174.879667
 31
0.0
  0
LINE
  8
FRONTVIEW
 10
97.23315
 20
179.182838
 30
0.0
 11
97.23315
 21
174.879667
 31
0.0
  0
LINE
  8
FRONTVIEW
  6
CONTINUOUS
 10
97.23315
 20
179.182838
 30
0.0
 11
104.518221
 21
179.182838
 31
0.0
  0
LINE
  8
FRONTVIEW
 10
161.153492
 20
108.905661
 30
0.0
 11
161.153492
 21
106.782665
 31
0.0
  0
LINE
  8
FRONTVIEW
 10
162.375685
 20
140.038211
 30
0.0
 11
162.375685
 21
108.905661
 31
0.0
  0
LINE
  8
FRONTVIEW
 10
148.90305
 20
108.905661
 30
0.0
 11
162.375685
 21
108.905661
 31
0.0
  0
LINE
  8
FRONTVIEW
 10
148.283826
 20
106.782665
 30
0.0
 11
161.153492
 21
106.782665
 31
0.0
  0
LINE
  8
FRONTVIEW
 10
64.875685
 20
65.04381
 30
0.0
 11
57.656228
 21
97.185852
 31
0.0
  0
CIRCLE
  8
FRONTVIEW
 10
100.875685
 20
100.617196
 30
0.0
 40
13.742594
  0
CIRCLE
  8
FRONTVIEW
 10
100.875685
 20
100.617196
 30
0.0
 40
11.930815
  0
LINE
  8
FRONTVIEW
 10
37.102682
 20
53.04381
 30
0.0
 11
61.267891
 21
53.04381
 31
0.0
  0
LINE
  8
FRONTVIEW
 10
129.875685
 20
65.04381
 30
0.0
 11
129.875685
 21
53.04381
 31
0.0
  0
LINE
  8
FRONTVIEW
 10
136.875685
 20
65.04381
 30
0.0
 11
136.875685
 21
53.04381
 31
0.0
  0
LINE
  8
FRONTVIEW
 10
129.875685
 20
65.04381
 30
0.0
 11
136.875685
 21
65.04381
 31
0.0
  0
LINE
  8
FRONTVIEW
 10
71.875685
 20
65.04381
 30
0.0
 11
64.875685
 21
65.04381
 31
0.0
  0
LINE
  8
FRONTVIEW
 10
64.875685
 20
65.04381
 30
0.0
 11
64.875685
 21
53.04381
 31
0.0
  0
LINE
  8
FRONTVIEW
 10
71.875685
 20
65.04381
 30
0.0
 11
71.875685
 21
53.04381
 31
0.0
  0
LINE
  8
FRONTVIEW
 10
123.596554
 20
77.539124
 30
0.0
 11
129.875685
 21
65.04381
 31
0.0
  0
LINE
  8
FRONTVIEW
 10
78.154815
 20
77.539124
 30
0.0
 11
71.875685
 21
65.04381
 31
0.0
  0
LINE
  8
RIGHTSIDE
 10
405.455363
 20
181.04381
 30
0.0
 11
405.455363
 21
180.055699
 31
0.0
  0
LINE
  8
PLANVIEW
 10
379.455356
 20
353.613433
 30
0.0
 11
379.455356
 21
315.929267
 31
0.0
  0
LINE
  8
FRONTVIEW
 10
129.875685
 20
53.04381
 30
0.0
 11
136.875685
 21
53.04381
 31
0.0
  0
LINE
  8
FRONTVIEW
 10
64.875685
 20
53.04381
 30
0.0
 11
71.875685
 21
53.04381
 31
0.0
  0
TEXT
  8
FRONTVIEW
 10
78.064223
 20
37.127901
 30
0.0
 40
5.0
  1
FRONT VIEW
  7
ROMANS
 72
     4
 11
100.802318
 21
39.627901
 31
0.0
  0
TEXT
  8
RIGHTSIDE
 10
430.137555
 20
40.752069
 30
0.0
 40
5.0
  1
RIGHT SIDE
  7
ROMANS
 72
     4
 11
451.447079
 21
43.252069
 31
0.0
  0
POLYLINE
  8
CAPTIONS
 66
     1
 10
0.0
 20
0.0
 30
0.0
 70
     1
 40
0.5
 41
0.5
  0
VERTEX
  8
CAPTIONS
 10
626.496065
 20
203.310788
 30
0.0
 42
1.0
  0
VERTEX
  8
CAPTIONS
 10
626.996065
 20
203.310788
 30
0.0
 42
1.0
  0
SEQEND
  8
CAPTIONS
  0
CIRCLE
  8
CAPTIONS
 10
626.746065
 20
203.310788
 30
0.0
 40
2.799891
  0
TEXT
  8
CAPTIONS
 10
631.663168
 20
186.046946
 30
0.0
 40
4.597
  1
jurisdictional requirements.
  7
ROMANS
  0
TEXT
  8
CAPTIONS
 10
631.663168
 20
193.489708
 30
0.0
 40
4.597
  1
clearance consult local
  7
ROMANS
  0
TEXT
  8
CAPTIONS
 10
631.663168
 20
200.932469
 30
0.0
 40
4.597
  1
For minimum aisle 
  7
ROMANS
  0
TEXT
  8
CAPTIONS
 10
399.109233
 20
485.969179
 30
0.0
 40
5.0
  1
CB 600 HP 
  7
ROMAND
  0
ARC
  8
CAPTIONS
 10
422.482687
 20
6.167753
 30
0.0
 40
13.097472
 50
73.493764
 51
74.4082
  0
ARC
  8
CAPTIONS
 10
423.410675
 20
9.299442
 30
0.0
 40
9.831184
 50
54.419527
 51
73.493591
  0
ARC
  8
CAPTIONS
 10
424.82973
 20
11.282981
 30
0.0
 40
7.392302
 50
30.070114
 51
54.419544
  0
ARC
  8
CAPTIONS
 10
426.998945
 20
12.538916
 30
0.0
 40
4.885738
 50
359.999979
 51
30.070151
  0
ARC
  8
CAPTIONS
 10
428.002157
 20
12.205672
 30
0.0
 40
3.896801
 50
329.929866
 51
4.905749
  0
ARC
  8
CAPTIONS
 10
424.527335
 20
14.217532
 30
0.0
 40
7.912018
 50
305.580464
 51
329.929893
  0
ARC
  8
CAPTIONS
 10
423.410675
 20
15.778386
 30
0.0
 40
9.831184
 50
286.506409
 51
305.580473
  0
ARC
  8
CAPTIONS
 10
422.4827
 20
18.906541
 30
0.0
 40
13.097364
 50
270.000045
 51
286.506319
  0
ARC
  8
CAPTIONS
 10
420.135715
 20
13.794873
 30
0.0
 40
7.392338
 50
210.070176
 51
227.741303
  0
ARC
  8
CAPTIONS
 10
417.966472
 20
12.538912
 30
0.0
 40
4.885736
 50
179.999984
 51
210.070156
  0
ARC
  8
CAPTIONS
 10
417.966474
 20
12.538916
 30
0.0
 40
4.885738
 50
149.929849
 51
180.000021
  0
ARC
  8
CAPTIONS
 10
420.135689
 20
11.282979
 30
0.0
 40
7.392304
 50
125.580444
 51
149.929874
  0
ARC
  8
CAPTIONS
 10
421.554744
 20
9.299442
 30
0.0
 40
9.831184
 50
106.506409
 51
125.580473
  0
ARC
  8
CAPTIONS
 10
422.482728
 20
6.167832
 30
0.0
 40
13.097395
 50
94.417361
 51
106.506318
  0
ARC
  8
CAPTIONS
 10
422.482719
 20
18.906541
 30
0.0
 40
13.097364
 50
253.493681
 51
269.999955
  0
ARC
  8
CAPTIONS
 10
421.554701
 20
15.77487
 30
0.0
 40
9.831085
 50
251.627947
 51
253.493685
  0
ARC
  8
CAPTIONS
 10
423.115708
 20
23.545419
 30
0.0
 40
0.723632
 50
26.058138
 51
90.000027
  0
ARC
  8
CAPTIONS
 10
412.490059
 20
18.349559
 30
0.0
 40
12.551623
 50
19.796937
 51
26.058266
  0
ARC
  8
CAPTIONS
 10
455.32191
 20
13.97845
 30
0.0
 40
34.57041
 50
168.549831
 51
171.020329
  0
ARC
  8
CAPTIONS
 10
433.741551
 20
18.349486
 30
0.0
 40
12.551829
 50
153.941824
 51
168.549851
  0
ARC
  8
CAPTIONS
 10
423.115707
 20
23.545418
 30
0.0
 40
0.723632
 50
89.999937
 51
153.941826
  0
ARC
  8
CAPTIONS
 10
395.383193
 20
10.243388
 30
0.0
 40
30.005881
 50
348.549808
 51
352.045725
  0
ARC
  8
CAPTIONS
 10
412.489869
 20
6.778475
 30
0.0
 40
12.551828
 50
333.941804
 51
348.54983
  0
ARC
  8
CAPTIONS
 10
423.115708
 20
1.582538
 30
0.0
 40
0.723632
 50
270.00003
 51
333.941919
  0
ARC
  8
CAPTIONS
 10
423.115708
 20
1.582539
 30
0.0
 40
0.723632
 50
206.058117
 51
270.000006
  0
ARC
  8
CAPTIONS
 10
433.741548
 20
6.778471
 30
0.0
 40
12.551827
 50
191.450154
 51
206.058181
  0
ARC
  8
CAPTIONS
 10
450.84983
 20
10.243656
 30
0.0
 40
30.007509
 50
188.358819
 51
191.450083
  0
ARC
  8
CAPTIONS
 10
395.458158
 20
-30.314169
 30
0.0
 40
52.738673
 50
47.178359
 51
48.173695
  0
ARC
  8
CAPTIONS
 10
418.684748
 20
-5.250729
 30
0.0
 40
18.567771
 50
35.590662
 51
47.17836
  0
ARC
  8
CAPTIONS
 10
433.31277
 20
5.214874
 30
0.0
 40
0.579453
 50
325.888644
 51
35.590677
  0
ARC
  8
CAPTIONS
 10
444.645567
 20
50.243774
 30
0.0
 40
45.643056
 50
227.178319
 51
228.469064
  0
ARC
  8
CAPTIONS
 10
426.24197
 20
30.3848
 30
0.0
 40
18.567768
 50
215.590671
 51
227.178369
  0
ARC
  8
CAPTIONS
 10
411.613952
 20
19.91577
 30
0.0
 40
0.579453
 50
145.888644
 51
215.590677
  0
ARC
  8
CAPTIONS
 10
411.613953
 20
19.91577
 30
0.0
 40
0.579454
 50
76.186623
 51
145.888656
  0
ARC
  8
CAPTIONS
 10
407.319067
 20
2.447705
 30
0.0
 40
18.567765
 50
64.598944
 51
76.186642
  0
ARC
  8
CAPTIONS
 10
395.705823
 20
-22.008714
 30
0.0
 40
45.64144
 50
61.736217
 51
64.599024
  0
ARC
  8
CAPTIONS
 10
433.31277
 20
5.214874
 30
0.0
 40
0.579454
 50
256.186623
 51
325.888656
  0
ARC
  8
CAPTIONS
 10
437.607656
 20
22.682939
 30
0.0
 40
18.567765
 50
244.598944
 51
256.186642
  0
ARC
  8
CAPTIONS
 10
449.221791
 20
47.144535
 30
0.0
 40
45.643404
 50
241.807185
 51
244.598955
  0
ARC
  8
CAPTIONS
 10
411.686598
 20
5.178251
 30
0.0
 40
0.510671
 50
142.874757
 51
214.376124
  0
ARC
  8
CAPTIONS
 10
427.542687
 20
-6.821199
 30
0.0
 40
20.397466
 50
132.266064
 51
142.874701
  0
ARC
  8
CAPTIONS
 10
447.731977
 20
-29.035402
 30
0.0
 40
50.415431
 50
131.286278
 51
132.26603
  0
ARC
  8
CAPTIONS
 10
389.345334
 20
58.228002
 30
0.0
 40
58.293083
 50
296.485995
 51
298.153044
  0
ARC
  8
CAPTIONS
 10
406.245987
 20
24.306355
 30
0.0
 40
20.397466
 50
285.877352
 51
296.485989
  0
ARC
  8
CAPTIONS
 10
411.686598
 20
5.17825
 30
0.0
 40
0.51067
 50
214.375979
 51
285.877346
  0
ARC
  8
CAPTIONS
 10
452.331729
 20
-25.893361
 30
0.0
 40
50.419304
 50
116.486045
 51
119.066308
  0
ARC
  8
CAPTIONS
 10
438.942582
 20
0.977468
 30
0.0
 40
20.397468
 50
105.877365
 51
116.486002
  0
ARC
  8
CAPTIONS
 10
433.501967
 20
20.105573
 30
0.0
 40
0.510671
 50
34.376009
 51
105.877376
  0
ARC
  8
CAPTIONS
 10
433.501967
 20
20.105573
 30
0.0
 40
0.510671
 50
322.87467
 51
34.376037
  0
ARC
  8
CAPTIONS
 10
417.645877
 20
32.108448
 30
0.0
 40
20.397466
 50
312.266064
 51
322.874701
  0
ARC
  8
CAPTIONS
 10
397.452603
 20
54.327035
 30
0.0
 40
50.421355
 50
310.99866
 51
312.26603
  0
ARC
  8
CAPTIONS
 10
407.323237
 20
12.605549
 30
0.0
 40
0.556231
 50
107.770486
 51
179.999953
  0
ARC
  8
CAPTIONS
 10
414.604383
 20
-10.112786
 30
0.0
 40
24.41284
 50
97.562078
 51
107.770471
  0
ARC
  8
CAPTIONS
 10
419.347376
 20
-45.840428
 30
0.0
 40
60.453934
 50
95.609002
 51
97.562053
  0
ARC
  8
CAPTIONS
 10
420.592571
 20
80.431061
 30
0.0
 40
69.915761
 50
262.437931
 51
263.989935
  0
ARC
  8
CAPTIONS
 10
414.604383
 20
35.323884
 30
0.0
 40
24.41284
 50
252.229529
 51
262.437922
  0
ARC
  8
CAPTIONS
 10
407.323238
 20
12.60555
 30
0.0
 40
0.556232
 50
180.000001
 51
252.229468
  0
ARC
  8
CAPTIONS
 10
425.765687
 20
-45.840088
 30
0.0
 40
60.453592
 50
82.437943
 51
84.316515
  0
ARC
  8
CAPTIONS
 10
430.508639
 20
-10.112781
 30
0.0
 40
24.412836
 50
72.229526
 51
82.437919
  0
ARC
  8
CAPTIONS
 10
437.789784
 20
12.605549
 30
0.0
 40
0.556231
 50
0.000047
 51
72.229514
  0
ARC
  8
CAPTIONS
 10
437.789784
 20
12.60555
 30
0.0
 40
0.556232
 50
287.770532
 51
359.999999
  0
ARC
  8
CAPTIONS
 10
430.508639
 20
35.32388
 30
0.0
 40
24.412836
 50
277.562081
 51
287.770474
  0
ARC
  8
CAPTIONS
 10
425.765729
 20
71.050968
 30
0.0
 40
60.45337
 50
275.76689
 51
277.562045
  0
TEXT
  8
CAPTIONS
 10
314.225442
 20
499.426259
 30
0.0
 40
9.0
  1
Cleaver-Brooks Layout Guide
  7
ROMAND
  0
LINE
  8
CAPTIONS
 10
421.869867
 20
6.695798
 30
0.0
 11
421.66523
 21
5.843836
 31
0.0
  0
LINE
  8
CAPTIONS
 10
423.827267
 20
7.543712
 30
0.0
 11
423.489171
 21
5.787475
 31
0.0
  0
LINE
  8
CAPTIONS
 10
419.423116
 20
6.531384
 30
0.0
 11
419.360835
 21
6.187609
 31
0.0
  0
LINE
  8
CAPTIONS
 10
422.145682
 20
6.796377
 30
0.0
 11
419.423116
 21
6.53481
 31
0.0
  0
LINE
  8
CAPTIONS
 10
423.720499
 20
7.543712
 30
0.0
 11
422.145682
 21
6.796377
 31
0.0
  0
LINE
  8
CAPTIONS
 10
425.375061
 20
8.500301
 30
0.0
 11
423.720499
 21
7.543712
 31
0.0
  0
LINE
  8
CAPTIONS
 10
425.375061
 20
8.500301
 30
0.0
 11
430.037563
 21
8.500301
 31
0.0
  0
LINE
  8
CAPTIONS
 10
421.906481
 20
12.491445
 30
0.0
 11
413.097156
 21
12.491445
 31
0.0
  0
LINE
  8
CAPTIONS
 10
421.714448
 20
10.684829
 30
0.0
 11
413.444149
 21
10.684829
 31
0.0
  0
LINE
  8
CAPTIONS
 10
415.686262
 20
10.6601
 30
0.0
 11
416.255688
 21
8.642294
 31
0.0
  0
LINE
  8
CAPTIONS
 10
415.312577
 20
12.491071
 30
0.0
 11
415.686262
 21
10.6601
 31
0.0
  0
LINE
  8
CAPTIONS
 10
415.757441
 20
14.426668
 30
0.0
 11
415.312577
 21
12.491071
 31
0.0
  0
LINE
  8
CAPTIONS
 10
416.762832
 20
16.870454
 30
0.0
 11
415.757441
 21
14.426668
 31
0.0
  0
LINE
  8
CAPTIONS
 10
419.536424
 20
18.929535
 30
0.0
 11
416.762832
 21
16.870454
 31
0.0
  0
LINE
  8
CAPTIONS
 10
417.963964
 20
10.6601
 30
0.0
 11
418.435519
 21
9.225216
 31
0.0
  0
LINE
  8
CAPTIONS
 10
417.714841
 20
12.491071
 30
0.0
 11
417.963964
 21
10.6601
 31
0.0
  0
LINE
  8
CAPTIONS
 10
417.999553
 20
14.426668
 30
0.0
 11
417.714841
 21
12.491071
 31
0.0
  0
LINE
  8
CAPTIONS
 10
418.53339
 20
16.870454
 30
0.0
 11
417.999553
 21
14.426668
 31
0.0
  0
LINE
  8
CAPTIONS
 10
420.176629
 20
19.060608
 30
0.0
 11
418.53339
 21
16.870454
 31
0.0
  0
LINE
  8
CAPTIONS
 10
420.179385
 20
12.491071
 30
0.0
 11
420.49079
 21
9.920238
 31
0.0
  0
LINE
  8
CAPTIONS
 10
420.608517
 20
16.644668
 30
0.0
 11
420.179385
 21
12.491071
 31
0.0
  0
LINE
  8
CAPTIONS
 10
421.629652
 20
14.426671
 30
0.0
 11
413.479739
 21
14.426671
 31
0.0
  0
LINE
  8
CAPTIONS
 10
420.503254
 20
16.879288
 30
0.0
 11
415.305836
 21
16.879288
 31
0.0
  0
LINE
  8
CAPTIONS
 10
427.332792
 20
10.540526
 30
0.0
 11
431.514511
 21
10.540526
 31
0.0
  0
LINE
  8
CAPTIONS
 10
425.473262
 20
9.344789
 30
0.0
 11
427.332792
 21
10.540526
 31
0.0
  0
LINE
  8
CAPTIONS
 10
425.099577
 20
6.131249
 30
0.0
 11
425.473262
 21
9.344789
 31
0.0
  0
LINE
  8
CAPTIONS
 10
425.04534
 20
12.811007
 30
0.0
 11
427.578989
 21
12.467808
 31
0.0
  0
LINE
  8
CAPTIONS
 10
426.81675
 20
8.522721
 30
0.0
 11
426.22953
 21
6.347977
 31
0.0
  0
LINE
  8
CAPTIONS
 10
429.150763
 20
8.568404
 30
0.0
 11
428.702972
 21
7.491399
 31
0.0
  0
LINE
  8
CAPTIONS
 10
429.6846
 20
10.698308
 30
0.0
 11
429.150763
 21
8.568404
 31
0.0
  0
LINE
  8
CAPTIONS
 10
429.915928
 20
12.536753
 30
0.0
 11
429.6846
 21
10.698308
 31
0.0
  0
LINE
  8
CAPTIONS
 10
428.999603
 20
16.769478
 30
0.0
 11
428.729664
 21
17.520635
 31
0.0
  0
LINE
  8
CAPTIONS
 10
428.999603
 20
16.769478
 30
0.0
 11
429.619392
 21
14.374355
 31
0.0
  0
LINE
  8
CAPTIONS
 10
427.599711
 20
12.46865
 30
0.0
 11
431.870402
 21
12.46865
 31
0.0
  0
LINE
  8
CAPTIONS
 10
426.167249
 20
16.803194
 30
0.0
 11
429.69057
 21
16.803194
 31
0.0
  0
LINE
  8
CAPTIONS
 10
427.458459
 20
14.41949
 30
0.0
 11
427.578989
 21
12.467808
 31
0.0
  0
LINE
  8
CAPTIONS
 10
426.838672
 20
16.814613
 30
0.0
 11
427.458459
 21
14.41949
 31
0.0
  0
LINE
  8
CAPTIONS
 10
427.350587
 20
10.652626
 30
0.0
 11
426.81675
 21
8.522721
 31
0.0
  0
LINE
  8
CAPTIONS
 10
427.581916
 20
12.491071
 30
0.0
 11
427.350587
 21
10.652626
 31
0.0
  0
LINE
  8
CAPTIONS
 10
429.619392
 20
14.374355
 30
0.0
 11
429.913002
 21
12.513491
 31
0.0
  0
LINE
  8
CAPTIONS
 10
426.843443
 20
16.803194
 30
0.0
 11
426.015996
 21
18.783631
 31
0.0
  0
LINE
  8
CAPTIONS
 10
431.507968
 20
14.420177
 30
0.0
 11
425.722386
 21
14.419195
 31
0.0
  0
LINE
  8
CAPTIONS
 10
422.340502
 20
20.066821
 30
0.0
 11
422.63717
 21
17.601764
 31
0.0
  0
LINE
  8
CAPTIONS
 10
424.242079
 20
20.960936
 30
0.0
 11
424.503921
 21
19.308223
 31
0.0
  0
LINE
  8
CAPTIONS
 10
423.549102
 20
18.945432
 30
0.0
 11
423.375293
 21
16.46502
 31
0.0
  0
LINE
  8
CAPTIONS
 10
423.765798
 20
17.343779
 30
0.0
 11
423.549102
 21
18.945432
 31
0.0
  0
LINE
  8
CAPTIONS
 10
423.808686
 20
19.308223
 30
0.0
 11
423.765798
 21
17.343779
 31
0.0
  0
LINE
  8
CAPTIONS
 10
424.06827
 20
18.12042
 30
0.0
 11
423.808686
 21
19.308223
 31
0.0
  0
ARC
  8
CAPTIONS
 10
428.9899
 20
19.309437
 30
0.0
 40
5.063221
 50
160.56057
 51
193.581845
  0
LINE
  8
CAPTIONS
 10
423.472355
 20
19.688482
 30
0.0
 11
423.755318
 21
23.98496
 31
0.0
  0
LINE
  8
CAPTIONS
 10
423.260495
 20
23.732734
 30
0.0
 11
423.472355
 21
19.688482
 31
0.0
  0
LINE
  8
CAPTIONS
 10
423.047184
 20
20.825226
 30
0.0
 11
423.260495
 21
23.732734
 31
0.0
  0
LINE
  8
CAPTIONS
 10
422.446432
 20
22.848216
 30
0.0
 11
423.047184
 21
20.825226
 31
0.0
  0
LINE
  8
CAPTIONS
 10
422.340502
 20
20.066821
 30
0.0
 11
422.446432
 21
22.848216
 31
0.0
  0
LINE
  8
CAPTIONS
 10
422.198295
 20
21.583631
 30
0.0
 11
422.340502
 21
20.066821
 31
0.0
  0
LINE
  8
CAPTIONS
 10
421.986435
 20
19.603831
 30
0.0
 11
422.198295
 21
21.583631
 31
0.0
  0
LINE
  8
CAPTIONS
 10
421.844228
 20
21.077452
 30
0.0
 11
421.986435
 21
19.603831
 31
0.0
  0
LINE
  8
CAPTIONS
 10
421.471298
 20
19.282502
 30
0.0
 11
421.844228
 21
21.077452
 31
0.0
  0
ARC
  8
CAPTIONS
 10
429.387204
 20
23.320677
 30
0.0
 40
5.670927
 50
173.273027
 51
204.21668
  0
ARC
  8
CAPTIONS
 10
425.984796
 20
21.632057
 30
0.0
 40
1.880825
 50
118.145776
 51
199.813636
  0
LINE
  8
CAPTIONS
 10
418.901412
 20
7.448615
 30
0.0
 11
418.882548
 21
7.849412
 31
0.0
  0
LINE
  8
CAPTIONS
 10
419.312071
 20
6.913068
 30
0.0
 11
419.087152
 21
7.491805
 31
0.0
  0
LINE
  8
CAPTIONS
 10
418.714221
 20
9.285028
 30
0.0
 11
415.198222
 21
8.383233
 31
0.0
  0
LINE
  8
CAPTIONS
 10
421.316031
 20
17.124761
 30
0.0
 11
421.471298
 21
19.282502
 31
0.0
  0
LINE
  8
CAPTIONS
 10
421.109976
 20
18.790143
 30
0.0
 11
421.316031
 21
17.124761
 31
0.0
  0
LINE
  8
CAPTIONS
 10
420.850229
 20
16.817253
 30
0.0
 11
421.109976
 21
18.790143
 31
0.0
  0
LINE
  8
CAPTIONS
 10
420.694963
 20
17.803698
 30
0.0
 11
420.850229
 21
16.817253
 31
0.0
  0
LINE
  8
CAPTIONS
 10
420.488907
 20
16.817253
 30
0.0
 11
420.694963
 21
17.803698
 31
0.0
  0
ARC
  8
CAPTIONS
 10
426.960357
 20
22.165683
 30
0.0
 40
2.176029
 50
148.875368
 51
216.031052
  0
ARC
  8
CAPTIONS
 10
414.282703
 20
12.388296
 30
0.0
 40
7.624476
 50
344.447646
 51
35.512937
  0
ARC
  8
CAPTIONS
 10
417.996739
 20
16.985378
 30
0.0
 40
8.191957
 50
329.36484
 51
28.431967
  0
LINE
  8
CAPTIONS
 10
420.229162
 20
9.886223
 30
0.0
 11
418.714221
 21
9.285028
 31
0.0
  0
LINE
  8
CAPTIONS
 10
421.160763
 20
10.117718
 30
0.0
 11
420.229162
 21
9.886223
 31
0.0
  0
ARC
  8
CAPTIONS
 10
421.384683
 20
9.81149
 30
0.0
 40
0.379362
 50
295.777135
 51
126.174908
  0
LINE
  8
CAPTIONS
 10
419.685002
 20
9.008615
 30
0.0
 11
421.549656
 21
9.469878
 31
0.0
  0
ARC
  8
CAPTIONS
 10
421.075921
 20
12.80135
 30
0.0
 40
4.039739
 50
249.86037
 51
306.718536
  0
LINE
  8
CAPTIONS
 10
423.180685
 20
11.643166
 30
0.0
 11
423.491219
 21
9.563167
 31
0.0
  0
LINE
  8
CAPTIONS
 10
423.530399
 20
11.828017
 30
0.0
 11
423.180685
 21
11.643166
 31
0.0
  0
LINE
  8
CAPTIONS
 10
423.840932
 20
11.689811
 30
0.0
 11
423.530399
 21
11.828017
 31
0.0
  0
LINE
  8
CAPTIONS
 10
424.112286
 20
11.088615
 30
0.0
 11
424.422821
 21
8.961971
 31
0.0
  0
LINE
  8
CAPTIONS
 10
423.840932
 20
11.734728
 30
0.0
 11
424.112286
 21
11.088615
 31
0.0
  0
LINE
  8
CAPTIONS
 10
423.996199
 20
11.919579
 30
0.0
 11
423.840932
 21
11.734728
 31
0.0
  0
LINE
  8
CAPTIONS
 10
424.267554
 20
12.012867
 30
0.0
 11
423.996199
 21
11.919579
 31
0.0
  0
LINE
  8
CAPTIONS
 10
424.50118
 20
11.781373
 30
0.0
 11
424.267554
 21
12.012867
 31
0.0
  0
LINE
  8
CAPTIONS
 10
424.96698
 20
9.516522
 30
0.0
 11
424.50118
 21
11.781373
 31
0.0
  0
LINE
  8
CAPTIONS
 10
424.888622
 20
12.197718
 30
0.0
 11
425.548869
 21
12.520774
 31
0.0
  0
LINE
  8
CAPTIONS
 10
424.772534
 20
11.50496
 30
0.0
 11
424.888622
 21
12.197718
 31
0.0
  0
LINE
  8
CAPTIONS
 10
424.96698
 20
9.516522
 30
0.0
 11
424.772534
 21
11.50496
 31
0.0
  0
LINE
  8
CAPTIONS
 10
425.898582
 20
10.440774
 30
0.0
 11
425.548869
 21
12.520774
 31
0.0
  0
ARC
  8
CAPTIONS
 10
426.205179
 20
11.784934
 30
0.0
 40
0.56983
 50
319.077108
 51
161.449207
  0
ARC
  8
CAPTIONS
 10
418.548208
 20
16.361797
 30
0.0
 40
9.482187
 50
274.559046
 51
328.530496
  0
LINE
  8
CAPTIONS
 10
418.464633
 20
6.510543
 30
0.0
 11
419.301913
 21
6.909612
 31
0.0
  0
TEXT
  8
CAPTIONS
 10
355.238184
 20
5.610623
 30
0.0
 40
2.7648
  1
DIV., AQUA-CHEM INC.
  7
ROMANS
  0
TEXT
  8
CAPTIONS
 10
442.163741
 20
5.531303
 30
0.0
 40
2.7648
  1
MILWAUKEE,WISCONSIN
  7
ROMANS
  0
TEXT
  8
CAPTIONS
 10
444.500958
 20
11.494644
 30
0.0
 40
8.2944
  1
Brooks
  7
ROMANT
  0
TEXT
  8
CAPTIONS
 10
355.97004
 20
11.415324
 30
0.0
 40
8.2944
  1
Cleaver
  7
ROMANT
  0
TEXT
  8
CAPTIONS
 10
705.723052
 20
437.687
 30
0.0
 40
5.0
  1
REAR TUBE CLEARANCE
  7
ROMAND
  0
TEXT
  8
CAPTIONS
 10
308.739674
 20
417.757256
 30
0.0
 40
5.0
  1
FRONT DOOR SWING
  7
ROMAND
  0
TEXT
  8
CAPTIONS
 10
589.364661
 20
417.016834
 30
0.0
 40
5.0
  1
REAR DOOR SWING
  7
ROMAND
  0
TEXT
  8
CAPTIONS
 10
212.824534
 20
438.08031
 30
0.0
 40
5.0
  1
FRONT TUBE CLEARANCE
  7
ROMAND
 72
     4
 11
260.324534
 21
440.58031
 31
0.0
  0
LINE
  8
CAPTIONS
  6
CONTINUOUS
 10
199.145581
 20
440.389931
 30
0.0
 11
206.477476
 21
440.389931
 31
0.0
  0
LINE
  8
CAPTIONS
  6
CONTINUOUS
 10
319.196403
 20
392.777891
 30
0.0
 11
298.668288
 21
419.831206
 31
0.0
  0
LINE
  8
CAPTIONS
  6
CONTINUOUS
 10
298.668288
 20
419.831206
 30
0.0
 11
305.57837
 21
419.831206
 31
0.0
  0
LINE
  8
CAPTIONS
  6
CONTINUOUS
 10
646.763636
 20
384.595514
 30
0.0
 11
673.517963
 21
419.854145
 31
0.0
  0
SOLID
  8
CAPTIONS
  6
CONTINUOUS
 10
649.122176
 20
389.082354
 30
0.0
 11
650.449879
 21
388.07489
 31
0.0
 12
646.763636
 22
384.595514
 32
0.0
 13
646.763636
 23
384.595514
 33
0.0
  0
LINE
  8
CAPTIONS
  6
CONTINUOUS
 10
673.517963
 20
419.854145
 30
0.0
 11
665.924154
 21
419.854145
 31
0.0
  0
LINE
  8
CAPTIONS
  6
CONTINUOUS
 10
786.931185
 20
409.695562
 30
0.0
 11
810.22214
 21
440.389931
 31
0.0
  0
SOLID
  8
CAPTIONS
  6
CONTINUOUS
 10
786.267334
 20
410.199294
 30
0.0
 11
787.595037
 21
409.19183
 31
0.0
 12
783.908794
 22
405.712454
 32
0.0
 13
783.908794
 23
405.712454
 33
0.0
  0
LINE
  8
CAPTIONS
  6
CONTINUOUS
 10
810.22214
 20
440.389931
 30
0.0
 11
800.235608
 21
440.389931
 31
0.0
  0
INSERT
  8
0
 66
     1
  2
GETDAT
 10
0.0
 20
-269.951032
 30
0.0
  0
ATTRIB
  8
0
 10
0.0
 20
-269.951032
 30
0.0
 40
1.0
  1
96" DIM.DIAG.PROTOTYPE
  2
DWGNAM
 70
     1
  0
ATTRIB
  8
0
 10
0.0
 20
-269.951032
 30
0.0
 40
1.0
  1
B
  2
DWGSIZ
 70
     1
  0
ATTRIB
  8
0
 10
0.0
 20
-269.951032
 30
0.0
 40
1.0
  1
00
  2
DWGREV
 70
     1
  0
ATTRIB
  8
0
 10
0.0
 20
-269.951032
 30
0.0
 40
1.0
  1
01
  2
DWGSHT
 70
     1
  0
ATTRIB
  8
0
 10
0.0
 20
-269.951032
 30
0.0
 40
1.0
  1
01
  2
DWGOF
 70
     1
  0
ATTRIB
  8
0
 10
0.0
 20
-269.951032
 30
0.0
 40
1.0
  1
 
  2
DWGDIST
 70
     1
  0
ATTRIB
  8
0
 10
0.0
 20
-269.951032
 30
0.0
 40
1.0
  1
01
  2
DWGQUAN
 70
     1
  0
ATTRIB
  8
0
 10
0.0
 20
-269.951032
 30
0.0
 40
1.0
  1
96" DIM. DIAG. PROTOTYPE 
  2
DWGDESC
 70
     1
  0
ATTRIB
  8
0
 10
0.0
 20
-269.951032
 30
0.0
 40
1.0
  1
D. KLEIST 
  2
DRWN
 70
     1
  0
ATTRIB
  8
0
 10
0.0
 20
-269.951032
 30
0.0
 40
1.0
  1
10/14/92
  2
DATE
 70
     1
  0
ATTRIB
  8
0
 10
0.0
 20
-269.951032
 30
0.0
 40
1.0
  1
01 
  2
FILE
 70
     1
  0
SEQEND
  8
0
  0
TEXT
  8
CAPTIONS
 10
390.911981
 20
477.044236
 30
0.0
 40
5.0
  1
SCALE - 1"=1"
  7
ROMAND
  0
LINE
  8
CAPTIONS
  6
DASHED
 10
192.455356
 20
220.008834
 30
0.0
 11
654.455356
 21
220.008834
 31
0.0
  0
LINE
  8
CAPTIONS
  6
DASHED
 10
654.455356
 20
268.208091
 30
0.0
 11
654.455356
 21
220.008834
 31
0.0
  0
LINE
  8
CAPTIONS
  6
DASHED
 10
806.455356
 20
268.208091
 30
0.0
 11
806.455356
 21
232.437127
 31
0.0
  0
LINE
  8
CAPTIONS
  6
DASHED
 10
806.455356
 20
232.437127
 30
0.0
 11
271.455356
 21
232.437127
 31
0.0
  0
LINE
  8
CAPTIONS
  6
DASHED
 10
192.455356
 20
268.208091
 30
0.0
 11
192.455356
 21
220.008834
 31
0.0
  0
LINE
  8
CAPTIONS
  6
DASHED
 10
271.455356
 20
268.208091
 30
0.0
 11
271.455356
 21
232.437127
 31
0.0
  0
TEXT
  8
CAPTIONS
  6
CONTINUOUS
 10
283.993094
 20
233.995414
 30
0.0
 40
5.0
  1
Distance required for tube removal from rear
  7
ROMANS
  0
TEXT
  8
CAPTIONS
  6
CONTINUOUS
 10
207.828525
 20
221.567121
 30
0.0
 40
5.0
  1
Distance required for tube removal from front
  7
ROMANS
  0
SOLID
  8
CAPTIONS
  6
CONTINUOUS
 10
316.837863
 20
397.264731
 30
0.0
 11
315.510161
 21
396.257267
 31
0.0
 12
319.196403
 22
392.777891
 32
0.0
 13
319.196403
 23
392.777891
 33
0.0
  0
POLYLINE
  8
FRONTVIEW
  6
CONTINUOUS
 66
     1
 10
0.0
 20
0.0
 30
0.0
 70
     1
 40
0.087756
 41
0.087756
  0
VERTEX
  8
FRONTVIEW
  6
CONTINUOUS
 10
144.000765
 20
128.894569
 30
0.0
  0
VERTEX
  8
FRONTVIEW
  6
CONTINUOUS
 10
144.000765
 20
132.116266
 30
0.0
 42
0.414214
  0
VERTEX
  8
FRONTVIEW
  6
CONTINUOUS
 10
143.123206
 20
132.993825
 30
0.0
  0
VERTEX
  8
FRONTVIEW
  6
CONTINUOUS
 10
119.585208
 20
132.993825
 30
0.0
 42
0.414214
  0
VERTEX
  8
FRONTVIEW
  6
CONTINUOUS
 10
118.70765
 20
132.116266
 30
0.0
  0
VERTEX
  8
FRONTVIEW
  6
CONTINUOUS
 10
118.70765
 20
128.894569
 30
0.0
 42
0.414214
  0
VERTEX
  8
FRONTVIEW
  6
CONTINUOUS
 10
119.585208
 20
128.01701
 30
0.0
  0
VERTEX
  8
FRONTVIEW
  6
CONTINUOUS
 10
143.123206
 20
128.01701
 30
0.0
 42
0.414214
  0
SEQEND
  8
FRONTVIEW
  6
CONTINUOUS
  0
ARC
  8
FRONTVIEW
 10
131.206652
 20
129.367802
 30
0.0
 40
2.29876
 50
73.493764
 51
74.4082
  0
ARC
  8
FRONTVIEW
 10
131.369525
 20
129.91745
 30
0.0
 40
1.725488
 50
54.419527
 51
73.493591
  0
ARC
  8
FRONTVIEW
 10
131.618586
 20
130.265584
 30
0.0
 40
1.297436
 50
30.070114
 51
54.419544
  0
ARC
  8
FRONTVIEW
 10
131.999308
 20
130.486016
 30
0.0
 40
0.857504
 50
359.999979
 51
30.070151
  0
ARC
  8
FRONTVIEW
 10
132.175384
 20
130.427527
 30
0.0
 40
0.683934
 50
329.929866
 51
4.905749
  0
ARC
  8
FRONTVIEW
 10
131.565512
 20
130.780632
 30
0.0
 40
1.388652
 50
305.580464
 51
329.929893
  0
ARC
  8
FRONTVIEW
 10
131.369525
 20
131.054581
 30
0.0
 40
1.725488
 50
286.506409
 51
305.580473
  0
ARC
  8
FRONTVIEW
 10
131.206655
 20
131.603608
 30
0.0
 40
2.298741
 50
270.000045
 51
286.506319
  0
ARC
  8
FRONTVIEW
 10
130.794731
 20
130.706451
 30
0.0
 40
1.297442
 50
210.070176
 51
227.284945
  0
ARC
  8
FRONTVIEW
 10
130.414004
 20
130.486015
 30
0.0
 40
0.857504
 50
179.999984
 51
210.070156
  0
ARC
  8
FRONTVIEW
 10
130.414004
 20
130.486016
 30
0.0
 40
0.857504
 50
149.929849
 51
180.000021
  0
ARC
  8
FRONTVIEW
 10
130.794727
 20
130.265584
 30
0.0
 40
1.297436
 50
125.580444
 51
149.929874
  0
ARC
  8
FRONTVIEW
 10
131.043787
 20
129.91745
 30
0.0
 40
1.725488
 50
106.506409
 51
125.580473
  0
ARC
  8
FRONTVIEW
 10
131.20666
 20
129.367816
 30
0.0
 40
2.298746
 50
94.446912
 51
106.506318
  0
ARC
  8
FRONTVIEW
 10
131.206658
 20
131.603608
 30
0.0
 40
2.298741
 50
253.493681
 51
269.999955
  0
ARC
  8
FRONTVIEW
 10
131.04378
 20
131.053964
 30
0.0
 40
1.725471
 50
243.334254
 51
253.493685
  0
ARC
  8
FRONTVIEW
 10
131.317755
 20
132.417786
 30
0.0
 40
0.127006
 50
26.058138
 51
90.000027
  0
ARC
  8
FRONTVIEW
 10
129.452829
 20
131.505852
 30
0.0
 40
2.202957
 50
19.796937
 51
26.058266
  0
ARC
  8
FRONTVIEW
 10
136.970321
 20
130.738671
 30
0.0
 40
6.067512
 50
168.549831
 51
171.317764
  0
ARC
  8
FRONTVIEW
 10
133.182715
 20
131.505839
 30
0.0
 40
2.202993
 50
153.941824
 51
168.549851
  0
ARC
  8
FRONTVIEW
 10
131.317755
 20
132.417786
 30
0.0
 40
0.127006
 50
89.999937
 51
153.941826
  0
ARC
  8
FRONTVIEW
 10
126.450373
 20
130.083124
 30
0.0
 40
5.266384
 50
348.549808
 51
352.010674
  0
ARC
  8
FRONTVIEW
 10
129.452796
 20
129.474991
 30
0.0
 40
2.202993
 50
333.941804
 51
348.54983
  0
ARC
  8
FRONTVIEW
 10
131.317755
 20
128.563043
 30
0.0
 40
0.127006
 50
270.00003
 51
333.941919
  0
ARC
  8
FRONTVIEW
 10
131.317755
 20
128.563043
 30
0.0
 40
0.127006
 50
206.058117
 51
270.000006
  0
ARC
  8
FRONTVIEW
 10
133.182714
 20
129.47499
 30
0.0
 40
2.202993
 50
191.450154
 51
206.058181
  0
ARC
  8
FRONTVIEW
 10
136.185419
 20
130.083171
 30
0.0
 40
5.26667
 50
188.358819
 51
191.450083
  0
ARC
  8
FRONTVIEW
 10
126.463531
 20
122.964797
 30
0.0
 40
9.256256
 50
47.178359
 51
48.30991
  0
ARC
  8
FRONTVIEW
 10
130.540069
 20
127.363724
 30
0.0
 40
3.258862
 50
35.590662
 51
47.17836
  0
ARC
  8
FRONTVIEW
 10
133.107459
 20
129.20056
 30
0.0
 40
0.101701
 50
325.888644
 51
35.590677
  0
ARC
  8
FRONTVIEW
 10
135.096498
 20
137.10366
 30
0.0
 40
8.010892
 50
227.178319
 51
228.469064
  0
ARC
  8
FRONTVIEW
 10
131.866451
 20
133.618178
 30
0.0
 40
3.258861
 50
215.590671
 51
227.178369
  0
ARC
  8
FRONTVIEW
 10
129.299062
 20
131.78074
 30
0.0
 40
0.101701
 50
145.888644
 51
215.590677
  0
ARC
  8
FRONTVIEW
 10
129.299062
 20
131.78074
 30
0.0
 40
0.101701
 50
76.186623
 51
145.888656
  0
ARC
  8
FRONTVIEW
 10
128.545259
 20
128.71489
 30
0.0
 40
3.258861
 50
64.598944
 51
76.186642
  0
ARC
  8
FRONTVIEW
 10
126.506999
 20
124.422501
 30
0.0
 40
8.010608
 50
61.707948
 51
64.599024
  0
ARC
  8
FRONTVIEW
 10
133.107459
 20
129.20056
 30
0.0
 40
0.101701
 50
256.186623
 51
325.888656
  0
ARC
  8
FRONTVIEW
 10
133.861262
 20
132.266411
 30
0.0
 40
3.258861
 50
244.598944
 51
256.186642
  0
ARC
  8
FRONTVIEW
 10
135.899679
 20
136.559708
 30
0.0
 40
8.010953
 50
241.807185
 51
244.598955
  0
ARC
  8
FRONTVIEW
 10
129.311812
 20
129.194133
 30
0.0
 40
0.089629
 50
142.874757
 51
214.376124
  0
ARC
  8
FRONTVIEW
 10
132.094742
 20
127.088088
 30
0.0
 40
3.579995
 50
132.266064
 51
142.874701
  0
ARC
  8
FRONTVIEW
 10
135.638199
 20
123.189235
 30
0.0
 40
8.8485
 50
131.136718
 51
132.26603
  0
ARC
  8
FRONTVIEW
 10
125.390658
 20
138.504986
 30
0.0
 40
10.23112
 50
296.485995
 51
298.480172
  0
ARC
  8
FRONTVIEW
 10
128.356921
 20
132.551339
 30
0.0
 40
3.579995
 50
285.877352
 51
296.485989
  0
ARC
  8
FRONTVIEW
 10
129.311812
 20
129.194132
 30
0.0
 40
0.089629
 50
214.375979
 51
285.877346
  0
ARC
  8
FRONTVIEW
 10
136.445509
 20
123.7407
 30
0.0
 40
8.849179
 50
116.486045
 51
119.187413
  0
ARC
  8
FRONTVIEW
 10
134.095557
 20
128.456846
 30
0.0
 40
3.579995
 50
105.877365
 51
116.486002
  0
ARC
  8
FRONTVIEW
 10
133.140665
 20
131.814053
 30
0.0
 40
0.089629
 50
34.376009
 51
105.877376
  0
ARC
  8
FRONTVIEW
 10
133.140665
 20
131.814053
 30
0.0
 40
0.089629
 50
322.87467
 51
34.376037
  0
ARC
  8
FRONTVIEW
 10
130.357735
 20
133.920698
 30
0.0
 40
3.579995
 50
312.266064
 51
322.874701
  0
ARC
  8
FRONTVIEW
 10
126.813579
 20
137.820321
 30
0.0
 40
8.849539
 50
310.789319
 51
312.26603
  0
ARC
  8
FRONTVIEW
 10
128.545991
 20
130.49771
 30
0.0
 40
0.097625
 50
107.770486
 51
179.999953
  0
ARC
  8
FRONTVIEW
 10
129.823918
 20
126.510376
 30
0.0
 40
4.28474
 50
97.562078
 51
107.770471
  0
ARC
  8
FRONTVIEW
 10
130.656368
 20
120.239756
 30
0.0
 40
10.610375
 50
95.609002
 51
97.562053
  0
ARC
  8
FRONTVIEW
 10
130.874915
 20
142.401883
 30
0.0
 40
12.271036
 50
262.437931
 51
264.068511
  0
ARC
  8
FRONTVIEW
 10
129.823918
 20
134.485045
 30
0.0
 40
4.28474
 50
252.229529
 51
262.437922
  0
ARC
  8
FRONTVIEW
 10
128.545991
 20
130.497711
 30
0.0
 40
0.097625
 50
180.000001
 51
252.229468
  0
ARC
  8
FRONTVIEW
 10
131.782857
 20
120.239816
 30
0.0
 40
10.610315
 50
82.437943
 51
84.517235
  0
ARC
  8
FRONTVIEW
 10
132.615301
 20
126.510377
 30
0.0
 40
4.284739
 50
72.229526
 51
82.437919
  0
ARC
  8
FRONTVIEW
 10
133.893227
 20
130.49771
 30
0.0
 40
0.097625
 50
0.000047
 51
72.229514
  0
ARC
  8
FRONTVIEW
 10
133.893227
 20
130.497711
 30
0.0
 40
0.097625
 50
287.770532
 51
359.999999
  0
ARC
  8
FRONTVIEW
 10
132.615301
 20
134.485044
 30
0.0
 40
4.284739
 50
277.562081
 51
287.770474
  0
ARC
  8
FRONTVIEW
 10
131.782865
 20
140.755567
 30
0.0
 40
10.610275
 50
275.603748
 51
277.562045
  0
LINE
  8
FRONTVIEW
 10
131.102292
 20
129.473789
 30
0.0
 11
131.0628
 21
129.309373
 31
0.0
  0
LINE
  8
FRONTVIEW
 10
131.444989
 20
129.62149
 30
0.0
 11
131.385375
 21
129.311825
 31
0.0
  0
LINE
  8
FRONTVIEW
 10
130.669662
 20
129.431623
 30
0.0
 11
130.658731
 21
129.371287
 31
0.0
  0
LINE
  8
FRONTVIEW
 10
131.147504
 20
129.478133
 30
0.0
 11
130.669662
 21
129.432225
 31
0.0
  0
LINE
  8
FRONTVIEW
 10
131.423903
 20
129.609299
 30
0.0
 11
131.147504
 21
129.478133
 31
0.0
  0
LINE
  8
FRONTVIEW
 10
131.714298
 20
129.777191
 30
0.0
 11
131.423903
 21
129.609299
 31
0.0
  0
LINE
  8
FRONTVIEW
 10
131.714298
 20
129.777191
 30
0.0
 11
132.525439
 21
129.777191
 31
0.0
  0
LINE
  8
FRONTVIEW
 10
131.105521
 20
130.477684
 30
0.0
 11
129.559381
 21
130.477684
 31
0.0
  0
LINE
  8
FRONTVIEW
 10
131.071817
 20
130.160602
 30
0.0
 11
129.620644
 21
130.160602
 31
0.0
  0
LINE
  8
FRONTVIEW
 10
130.0138
 20
130.156261
 30
0.0
 11
130.113179
 21
129.804103
 31
0.0
  0
LINE
  8
FRONTVIEW
 10
129.948214
 20
130.477618
 30
0.0
 11
130.0138
 21
130.156261
 31
0.0
  0
LINE
  8
FRONTVIEW
 10
130.026293
 20
130.817338
 30
0.0
 11
129.948214
 21
130.477618
 31
0.0
  0
LINE
  8
FRONTVIEW
 10
130.202751
 20
131.246251
 30
0.0
 11
130.026293
 21
130.817338
 31
0.0
  0
LINE
  8
FRONTVIEW
 10
130.689549
 20
131.607644
 30
0.0
 11
130.202751
 21
131.246251
 31
0.0
  0
LINE
  8
FRONTVIEW
 10
130.413563
 20
130.156261
 30
0.0
 11
130.496327
 21
129.904422
 31
0.0
  0
LINE
  8
FRONTVIEW
 10
130.369839
 20
130.477618
 30
0.0
 11
130.413563
 21
130.156261
 31
0.0
  0
LINE
  8
FRONTVIEW
 10
130.41981
 20
130.817338
 30
0.0
 11
130.369839
 21
130.477618
 31
0.0
  0
LINE
  8
FRONTVIEW
 10
130.513504
 20
131.246251
 30
0.0
 11
130.41981
 21
130.817338
 31
0.0
  0
LINE
  8
FRONTVIEW
 10
130.801912
 20
131.630649
 30
0.0
 11
130.513504
 21
131.246251
 31
0.0
  0
LINE
  8
FRONTVIEW
 10
130.802396
 20
130.477618
 30
0.0
 11
130.856411
 21
130.031688
 31
0.0
  0
LINE
  8
FRONTVIEW
 10
130.877714
 20
131.206623
 30
0.0
 11
130.802396
 21
130.477618
 31
0.0
  0
LINE
  8
FRONTVIEW
 10
131.056935
 20
130.817339
 30
0.0
 11
129.626529
 21
130.817339
 31
0.0
  0
LINE
  8
FRONTVIEW
 10
130.859239
 20
131.247802
 30
0.0
 11
129.947031
 21
131.247802
 31
0.0
  0
LINE
  8
FRONTVIEW
 10
132.057903
 20
130.135275
 30
0.0
 11
132.793732
 21
130.135275
 31
0.0
  0
LINE
  8
FRONTVIEW
 10
131.731533
 20
129.925409
 30
0.0
 11
132.057903
 21
130.135275
 31
0.0
  0
LINE
  8
FRONTVIEW
 10
131.664735
 20
129.350972
 30
0.0
 11
131.731533
 21
129.925409
 31
0.0
  0
LINE
  8
FRONTVIEW
 10
131.656428
 20
130.533771
 30
0.0
 11
132.101113
 21
130.473535
 31
0.0
  0
LINE
  8
FRONTVIEW
 10
131.967331
 20
129.781126
 30
0.0
 11
131.864267
 21
129.399433
 31
0.0
  0
LINE
  8
FRONTVIEW
 10
132.376978
 20
129.789144
 30
0.0
 11
132.298385
 21
129.600117
 31
0.0
  0
LINE
  8
FRONTVIEW
 10
132.470672
 20
130.162967
 30
0.0
 11
132.376978
 21
129.789144
 31
0.0
  0
LINE
  8
FRONTVIEW
 10
132.511273
 20
130.485636
 30
0.0
 11
132.470672
 21
130.162967
 31
0.0
  0
LINE
  8
FRONTVIEW
 10
132.350448
 20
131.228529
 30
0.0
 11
132.29923
 21
131.371052
 31
0.0
  0
LINE
  8
FRONTVIEW
 10
132.350448
 20
131.228529
 30
0.0
 11
132.459228
 21
130.808157
 31
0.0
  0
LINE
  8
FRONTVIEW
 10
132.10475
 20
130.473683
 30
0.0
 11
132.854306
 21
130.473683
 31
0.0
  0
LINE
  8
FRONTVIEW
 10
131.853336
 20
131.234446
 30
0.0
 11
132.481514
 21
131.234446
 31
0.0
  0
LINE
  8
FRONTVIEW
 10
132.079959
 20
130.816078
 30
0.0
 11
132.101113
 21
130.473535
 31
0.0
  0
LINE
  8
FRONTVIEW
 10
131.971179
 20
131.236451
 30
0.0
 11
132.079959
 21
130.816078
 31
0.0
  0
LINE
  8
FRONTVIEW
 10
132.061026
 20
130.15495
 30
0.0
 11
131.967331
 21
129.781126
 31
0.0
  0
LINE
  8
FRONTVIEW
 10
132.101627
 20
130.477618
 30
0.0
 11
132.061026
 21
130.15495
 31
0.0
  0
LINE
  8
FRONTVIEW
 10
132.459228
 20
130.808157
 30
0.0
 11
132.51076
 21
130.481553
 31
0.0
  0
LINE
  8
FRONTVIEW
 10
131.972016
 20
131.234446
 30
0.0
 11
131.826789
 21
131.582036
 31
0.0
  0
LINE
  8
FRONTVIEW
 10
132.790695
 20
130.816199
 30
0.0
 11
131.775258
 21
130.816027
 31
0.0
  0
LINE
  8
FRONTVIEW
 10
131.181697
 20
131.807251
 30
0.0
 11
131.233766
 21
131.374605
 31
0.0
  0
LINE
  8
FRONTVIEW
 10
131.515446
 20
131.964179
 30
0.0
 11
131.561402
 21
131.674108
 31
0.0
  0
LINE
  8
FRONTVIEW
 10
131.393821
 20
131.610434
 30
0.0
 11
131.363315
 21
131.175093
 31
0.0
  0
LINE
  8
FRONTVIEW
 10
131.431853
 20
131.329325
 30
0.0
 11
131.393821
 21
131.610434
 31
0.0
  0
LINE
  8
FRONTVIEW
 10
131.439381
 20
131.674108
 30
0.0
 11
131.431853
 21
131.329325
 31
0.0
  0
LINE
  8
FRONTVIEW
 10
131.484941
 20
131.465635
 30
0.0
 11
131.439381
 21
131.674108
 31
0.0
  0
ARC
  8
FRONTVIEW
 10
132.348745
 20
131.674322
 30
0.0
 40
0.888655
 50
160.56057
 51
193.581845
  0
LINE
  8
FRONTVIEW
 10
131.380351
 20
131.740848
 30
0.0
 11
131.430014
 21
132.494931
 31
0.0
  0
LINE
  8
FRONTVIEW
 10
131.343167
 20
132.450662
 30
0.0
 11
131.380351
 21
131.740848
 31
0.0
  0
LINE
  8
FRONTVIEW
 10
131.305728
 20
131.94036
 30
0.0
 11
131.343167
 21
132.450662
 31
0.0
  0
LINE
  8
FRONTVIEW
 10
131.200289
 20
132.295419
 30
0.0
 11
131.305728
 21
131.94036
 31
0.0
  0
LINE
  8
FRONTVIEW
 10
131.181697
 20
131.807251
 30
0.0
 11
131.200289
 21
132.295419
 31
0.0
  0
LINE
  8
FRONTVIEW
 10
131.156738
 20
132.073469
 30
0.0
 11
131.181697
 21
131.807251
 31
0.0
  0
LINE
  8
FRONTVIEW
 10
131.119554
 20
131.725991
 30
0.0
 11
131.156738
 21
132.073469
 31
0.0
  0
LINE
  8
FRONTVIEW
 10
131.094595
 20
131.984629
 30
0.0
 11
131.119554
 21
131.725991
 31
0.0
  0
LINE
  8
FRONTVIEW
 10
131.029142
 20
131.669594
 30
0.0
 11
131.094595
 21
131.984629
 31
0.0
  0
ARC
  8
FRONTVIEW
 10
132.418476
 20
132.378341
 30
0.0
 40
0.995314
 50
173.273027
 51
204.21668
  0
ARC
  8
FRONTVIEW
 10
131.821313
 20
132.081968
 30
0.0
 40
0.330107
 50
118.145776
 51
199.813636
  0
LINE
  8
FRONTVIEW
 10
130.578096
 20
129.592608
 30
0.0
 11
130.574786
 21
129.662953
 31
0.0
  0
LINE
  8
FRONTVIEW
 10
130.650172
 20
129.498613
 30
0.0
 11
130.610696
 21
129.600188
 31
0.0
  0
LINE
  8
FRONTVIEW
 10
130.545242
 20
129.91492
 30
0.0
 11
129.914608
 21
129.753173
 31
0.0
  0
LINE
  8
FRONTVIEW
 10
131.00189
 20
131.290885
 30
0.0
 11
131.029142
 21
131.669594
 31
0.0
  0
LINE
  8
FRONTVIEW
 10
130.965725
 20
131.583179
 30
0.0
 11
131.00189
 21
131.290885
 31
0.0
  0
LINE
  8
FRONTVIEW
 10
130.920137
 20
131.236914
 30
0.0
 11
130.965725
 21
131.583179
 31
0.0
  0
LINE
  8
FRONTVIEW
 10
130.892886
 20
131.410047
 30
0.0
 11
130.920137
 21
131.236914
 31
0.0
  0
LINE
  8
FRONTVIEW
 10
130.856721
 20
131.236914
 30
0.0
 11
130.892886
 21
131.410047
 31
0.0
  0
ARC
  8
FRONTVIEW
 10
131.992536
 20
132.175626
 30
0.0
 40
0.381919
 50
148.875368
 51
216.031052
  0
ARC
  8
FRONTVIEW
 10
129.767459
 20
130.45958
 30
0.0
 40
1.338185
 50
342.873466
 51
35.512937
  0
ARC
  8
FRONTVIEW
 10
130.419316
 20
131.266422
 30
0.0
 40
1.437784
 50
329.36484
 51
28.431967
  0
LINE
  8
FRONTVIEW
 10
130.811132
 20
130.020437
 30
0.0
 11
130.545242
 21
129.91492
 31
0.0
  0
LINE
  8
FRONTVIEW
 10
130.974639
 20
130.061067
 30
0.0
 11
130.811132
 21
130.020437
 31
0.0
  0
ARC
  8
FRONTVIEW
 10
131.01394
 20
130.00732
 30
0.0
 40
0.066582
 50
295.777135
 51
126.174908
  0
LINE
  8
FRONTVIEW
 10
130.715626
 20
129.866406
 30
0.0
 11
131.042894
 21
129.947363
 31
0.0
  0
ARC
  8
FRONTVIEW
 10
130.959748
 20
130.532076
 30
0.0
 40
0.709022
 50
249.86037
 51
306.718536
  0
LINE
  8
FRONTVIEW
 10
131.329159
 20
130.328801
 30
0.0
 11
131.383661
 21
129.963737
 31
0.0
  0
LINE
  8
FRONTVIEW
 10
131.390538
 20
130.361245
 30
0.0
 11
131.329159
 21
130.328801
 31
0.0
  0
LINE
  8
FRONTVIEW
 10
131.44504
 20
130.336988
 30
0.0
 11
131.390538
 21
130.361245
 31
0.0
  0
LINE
  8
FRONTVIEW
 10
131.492666
 20
130.231471
 30
0.0
 11
131.547169
 21
129.85822
 31
0.0
  0
LINE
  8
FRONTVIEW
 10
131.44504
 20
130.344871
 30
0.0
 11
131.492666
 21
130.231471
 31
0.0
  0
LINE
  8
FRONTVIEW
 10
131.472291
 20
130.377315
 30
0.0
 11
131.44504
 21
130.344871
 31
0.0
  0
LINE
  8
FRONTVIEW
 10
131.519917
 20
130.393688
 30
0.0
 11
131.472291
 21
130.377315
 31
0.0
  0
LINE
  8
FRONTVIEW
 10
131.560922
 20
130.353058
 30
0.0
 11
131.519917
 21
130.393688
 31
0.0
  0
LINE
  8
FRONTVIEW
 10
131.642675
 20
129.95555
 30
0.0
 11
131.560922
 21
130.353058
 31
0.0
  0
LINE
  8
FRONTVIEW
 10
131.628922
 20
130.426131
 30
0.0
 11
131.744803
 21
130.482832
 31
0.0
  0
LINE
  8
FRONTVIEW
 10
131.608547
 20
130.304544
 30
0.0
 11
131.628922
 21
130.426131
 31
0.0
  0
LINE
  8
FRONTVIEW
 10
131.642675
 20
129.95555
 30
0.0
 11
131.608547
 21
130.304544
 31
0.0
  0
LINE
  8
FRONTVIEW
 10
131.806182
 20
130.117767
 30
0.0
 11
131.744803
 21
130.482832
 31
0.0
  0
ARC
  8
FRONTVIEW
 10
131.859993
 20
130.353683
 30
0.0
 40
0.100012
 50
319.077108
 51
161.449207
  0
ARC
  8
FRONTVIEW
 10
130.516105
 20
131.156976
 30
0.0
 40
1.664235
 50
274.559046
 51
328.530496
  0
LINE
  8
FRONTVIEW
 10
130.486644
 20
129.420915
 30
0.0
 11
130.648389
 21
129.498007
 31
0.0
  0
TEXT
  8
FRONTVIEW
 10
134.803399
 20
129.944006
 30
0.0
 40
1.455764
  1
Brooks
  7
ROMANT
  0
TEXT
  8
FRONTVIEW
 10
119.265185
 20
129.930084
 30
0.0
 40
1.455764
  1
Cleaver
  7
ROMANT
  0
TEXT
  8
PLANVIEW
 10
426.261362
 20
276.40235
 30
0.0
 40
5.0
  1
PLAN VIEW
  7
ROMANS
 72
     4
 11
446.499457
 21
278.90235
 31
0.0
  0
SOLID
  8
CAPTIONS
  6
CONTINUOUS
 10
221.582783
 20
412.199294
 30
0.0
 11
220.25508
 21
411.19183
 31
0.0
 12
223.941323
 22
407.712454
 32
0.0
 13
223.941323
 23
407.712454
 33
0.0
  0
LINE
  8
CAPTIONS
  6
CONTINUOUS
 10
223.941323
 20
407.712454
 30
0.0
 11
199.145581
 21
440.389931
 31
0.0
  0
LINE
  8
FRONTVIEW
 10
145.726763
 20
134.898724
 30
0.0
 11
117.173558
 21
134.898724
 31
0.0
  0
LINE
  8
FRONTVIEW
 10
117.173558
 20
134.898724
 30
0.0
 11
117.173558
 21
115.297377
 31
0.0
  0
LINE
  8
FRONTVIEW
 10
117.173558
 20
115.297377
 30
0.0
 11
145.726763
 21
115.297377
 31
0.0
  0
LINE
  8
FRONTVIEW
 10
145.726763
 20
115.297377
 30
0.0
 11
145.726763
 21
134.898724
 31
0.0
  0
CIRCLE
  8
FRONTVIEW
 10
100.875685
 20
121.762201
 30
0.0
 40
48.0
  0
LINE
  8
FRONTVIEW
 10
136.875685
 20
65.04381
 30
0.0
 11
144.095142
 21
97.185852
 31
0.0
  0
CIRCLE
  8
FRONTVIEW
 10
100.875685
 20
121.762201
 30
0.0
 40
49.718391
  0
LINE
  8
RIGHTSIDE
 10
367.356524
 20
172.804775
 30
0.0
 11
361.054768
 21
172.804775
 31
0.0
  0
CIRCLE
  8
FRONTVIEW
 10
100.875685
 20
135.122495
 30
0.0
 40
5.559673
  0
CIRCLE
  8
FRONTVIEW
 10
100.875685
 20
135.122495
 30
0.0
 40
6.917337
  0
LINE
  8
RIGHTSIDE
 10
368.455356
 20
79.804634
 30
0.0
 11
368.455356
 21
169.474249
 31
0.0
  0
ARC
  8
RIGHTSIDE
 10
373.455356
 20
79.804634
 30
0.0
 40
5.0
 50
180.0
 51
270.0
  0
LINE
  8
RIGHTSIDE
 10
411.35706
 20
72.04381
 30
0.0
 11
567.303652
 21
72.04381
 31
0.0
  0
LINE
  8
RIGHTSIDE
 10
576.303652
 20
72.04381
 30
0.0
 11
602.455356
 21
72.04381
 31
0.0
  0
CIRCLE
  8
RIGHTSIDE
 10
588.637644
 20
58.760091
 30
0.0
 40
3.139684
  0
LINE
  8
RIGHTSIDE
 10
379.955356
 20
176.304775
 30
0.0
 11
379.955356
 21
180.055699
 31
0.0
  0
LINE
  8
RIGHTSIDE
 10
403.955356
 20
173.804775
 30
0.0
 11
403.955356
 21
180.055699
 31
0.0
  0
LINE
  8
RIGHTSIDE
 10
378.455356
 20
180.055699
 30
0.0
 11
378.455356
 21
181.04381
 31
0.0
  0
ARC
  8
RIGHTSIDE
 10
391.955356
 20
199.969246
 30
0.0
 40
28.785057
 50
246.452273
 51
294.637952
  0
LINE
  8
RIGHTSIDE
 10
379.955356
 20
53.04381
 30
0.0
 11
379.955356
 21
65.04381
 31
0.0
  0
LINE
  8
RIGHTSIDE
 10
600.955356
 20
53.04381
 30
0.0
 11
600.955356
 21
65.04381
 31
0.0
  0
ARC
  8
PLANVIEW
  6
DASHED
 10
601.889422
 20
357.059086
 30
0.0
 40
52.649311
 50
3.224953
 51
88.763214
  0
LINE
  8
PLANVIEW
  6
DASHED
 10
576.977083
 20
256.425214
 30
0.0
 11
577.702436
 21
255.736823
 31
0.0
  0
LINE
  8
PLANVIEW
  6
DASHED
 10
576.977083
 20
256.425214
 30
0.0
 11
646.537897
 21
329.720983
 31
0.0
  0
LINE
  8
PLANVIEW
  6
DASHED
 10
577.702436
 20
255.736823
 30
0.0
 11
647.26325
 21
329.032592
 31
0.0
  0
LINE
  8
PLANVIEW
  6
DASHED
 10
581.12639
 20
259.344621
 30
0.0
 11
589.830536
 21
251.084015
 31
0.0
  0
LINE
  8
PLANVIEW
  6
DASHED
 10
596.899189
 20
251.268824
 30
0.0
 11
653.083794
 21
310.47017
 31
0.0
  0
LINE
  8
PLANVIEW
  6
DASHED
 10
644.19484
 20
325.799429
 30
0.0
 11
652.898986
 21
317.538823
 31
0.0
  0
ARC
  8
PLANVIEW
  6
DASHED
 10
593.272458
 20
254.710746
 30
0.0
 40
5.0
 50
226.497645
 51
316.497645
  0
ARC
  8
PLANVIEW
  6
DASHED
 10
649.457064
 20
313.912092
 30
0.0
 40
5.0
 50
316.497645
 51
46.497645
  0
LINE
  8
PLANVIEW
  6
DASHED
 10
646.537897
 20
329.720983
 30
0.0
 11
647.26325
 21
329.032592
 31
0.0
  0
LINE
  8
RIGHTSIDE
 10
615.455356
 20
172.804775
 30
0.0
 11
603.769297
 21
172.804775
 31
0.0
  0
LINE
  8
RIGHTSIDE
 10
601.450586
 20
164.063785
 30
0.0
 11
598.207501
 21
164.063785
 31
0.0
  0
ARC
  8
RIGHTSIDE
 10
598.207501
 20
167.063785
 30
0.0
 40
3.0
 50
171.933015
 51
270.0
  0
LINE
  8
RIGHTSIDE
 10
595.237187
 20
167.484778
 30
0.0
 11
596.474441
 21
176.214239
 31
0.0
  0
LINE
  8
RIGHTSIDE
 10
611.158568
 20
172.804775
 30
0.0
 11
611.158568
 21
176.684736
 31
0.0
  0
LINE
  8
RIGHTSIDE
 10
610.221068
 20
176.684736
 30
0.0
 11
610.221068
 21
172.804775
 31
0.0
  0
LINE
  8
RIGHTSIDE
 10
610.033568
 20
176.872236
 30
0.0
 11
611.721068
 21
176.872236
 31
0.0
  0
LINE
  8
RIGHTSIDE
 10
611.721068
 20
176.684736
 30
0.0
 11
610.033568
 21
176.684736
 31
0.0
  0
LINE
  8
RIGHTSIDE
 10
611.721068
 20
176.684736
 30
0.0
 11
611.721068
 21
176.872236
 31
0.0
  0
LINE
  8
RIGHTSIDE
 10
611.367941
 20
180.299554
 30
0.0
 11
611.367941
 21
176.872236
 31
0.0
  0
LINE
  8
RIGHTSIDE
 10
610.221068
 20
180.66881
 30
0.0
 11
610.221068
 21
180.487054
 31
0.0
  0
LINE
  8
RIGHTSIDE
 10
611.158568
 20
180.487054
 30
0.0
 11
611.721068
 21
180.487054
 31
0.0
  0
LINE
  8
RIGHTSIDE
 10
611.721068
 20
180.299554
 30
0.0
 11
610.033568
 21
180.299554
 31
0.0
  0
LINE
  8
RIGHTSIDE
 10
610.033568
 20
180.487054
 30
0.0
 11
611.158568
 21
180.487054
 31
0.0
  0
LINE
  8
RIGHTSIDE
 10
611.158568
 20
180.487054
 30
0.0
 11
611.158568
 21
180.66881
 31
0.0
  0
LINE
  8
RIGHTSIDE
 10
611.721068
 20
180.299554
 30
0.0
 11
611.721068
 21
180.487054
 31
0.0
  0
LINE
  8
RIGHTSIDE
 10
610.221068
 20
180.66881
 30
0.0
 11
610.221068
 21
181.04381
 31
0.0
  0
LINE
  8
RIGHTSIDE
 10
611.158568
 20
180.66881
 30
0.0
 11
611.158568
 21
181.04381
 31
0.0
  0
LINE
  8
RIGHTSIDE
 10
611.158568
 20
181.04381
 30
0.0
 11
610.221068
 21
181.04381
 31
0.0
  0
LINE
  8
RIGHTSIDE
 10
596.503076
 20
168.714239
 30
0.0
 11
601.450586
 21
168.714239
 31
0.0
  0
LINE
  8
RIGHTSIDE
 10
596.503076
 20
168.620489
 30
0.0
 11
601.450586
 21
168.620489
 31
0.0
  0
LINE
  8
RIGHTSIDE
 10
599.236826
 20
168.901739
 30
0.0
 11
599.236826
 21
168.714239
 31
0.0
  0
LINE
  8
RIGHTSIDE
 10
599.236826
 20
168.901739
 30
0.0
 11
599.236826
 21
168.908515
 31
0.0
  0
LINE
  8
RIGHTSIDE
 10
599.236826
 20
175.839239
 30
0.0
 11
599.236826
 21
169.115026
 31
0.0
  0
LINE
  8
RIGHTSIDE
 10
596.878076
 20
176.214239
 30
0.0
 11
596.878076
 21
168.714239
 31
0.0
  0
LINE
  8
RIGHTSIDE
 10
596.971826
 20
176.214239
 30
0.0
 11
596.971826
 21
168.714239
 31
0.0
  0
LINE
  8
RIGHTSIDE
 10
597.736826
 20
175.839239
 30
0.0
 11
597.736826
 21
169.089239
 31
0.0
  0
LINE
  8
RIGHTSIDE
 10
596.503076
 20
168.714239
 30
0.0
 11
596.503076
 21
168.620489
 31
0.0
  0
LINE
  8
RIGHTSIDE
 10
597.736826
 20
168.901739
 30
0.0
 11
597.549326
 21
168.901739
 31
0.0
  0
LINE
  8
RIGHTSIDE
 10
597.549326
 20
168.901739
 30
0.0
 11
597.549326
 21
169.089239
 31
0.0
  0
LINE
  8
RIGHTSIDE
 10
597.549326
 20
169.089239
 30
0.0
 11
599.04185
 21
169.089239
 31
0.0
  0
LINE
  8
RIGHTSIDE
 10
599.136235
 20
168.901739
 30
0.0
 11
597.736826
 21
168.901739
 31
0.0
  0
LINE
  8
RIGHTSIDE
 10
597.736826
 20
168.901739
 30
0.0
 11
597.736826
 21
168.714239
 31
0.0
  0
LINE
  8
RIGHTSIDE
 10
599.236826
 20
176.214239
 30
0.0
 11
599.236826
 21
176.026739
 31
0.0
  0
LINE
  8
RIGHTSIDE
 10
595.724441
 20
176.214239
 30
0.0
 11
595.724441
 21
176.964239
 31
0.0
  0
LINE
  8
RIGHTSIDE
 10
597.736826
 20
176.214239
 30
0.0
 11
597.736826
 21
176.026739
 31
0.0
  0
LINE
  8
RIGHTSIDE
 10
597.549326
 20
176.026739
 30
0.0
 11
597.549326
 21
175.839239
 31
0.0
  0
LINE
  8
RIGHTSIDE
 10
601.183324
 20
176.214239
 30
0.0
 11
595.724441
 21
176.214239
 31
0.0
  0
LINE
  8
RIGHTSIDE
 10
601.183324
 20
176.964239
 30
0.0
 11
601.183324
 21
176.214239
 31
0.0
  0
LINE
  8
RIGHTSIDE
 10
595.724441
 20
176.964239
 30
0.0
 11
601.183324
 21
176.964239
 31
0.0
  0
LINE
  8
RIGHTSIDE
 10
620.455356
 20
80.304775
 30
0.0
 11
620.455356
 21
167.804775
 31
0.0
  0
ARC
  8
RIGHTSIDE
 10
615.455356
 20
167.804775
 30
0.0
 40
5.0
 50
0.0
 51
90.0
  0
ARC
  8
RIGHTSIDE
 10
615.455356
 20
80.304775
 30
0.0
 40
5.0
 50
270.0
 51
0.0
  0
LINE
  8
RIGHTSIDE
 10
596.13294
 20
173.804775
 30
0.0
 11
422.686257
 21
173.804775
 31
0.0
  0
POLYLINE
  8
RIGHTSIDE
 66
     1
 10
0.0
 20
0.0
 30
0.0
 70
     4
 75
     6
  0
VERTEX
  8
RIGHTSIDE
 10
597.549326
 20
176.026739
 30
0.0
 70
    16
  0
VERTEX
  8
RIGHTSIDE
 10
597.549326
 20
176.026739
 30
0.0
 70
     8
  0
VERTEX
  8
RIGHTSIDE
 10
598.598345
 20
176.031908
 30
0.0
 70
     8
  0
VERTEX
  8
RIGHTSIDE
 10
599.451698
 20
176.046752
 30
0.0
 70
     8
  0
VERTEX
  8
RIGHTSIDE
 10
600.136448
 20
176.070276
 30
0.0
 70
     8
  0
VERTEX
  8
RIGHTSIDE
 10
600.67966
 20
176.101484
 30
0.0
 70
     8
  0
VERTEX
  8
RIGHTSIDE
 10
601.108397
 20
176.139382
 30
0.0
 70
     8
  0
VERTEX
  8
RIGHTSIDE
 10
601.449721
 20
176.182973
 30
0.0
 70
     8
  0
VERTEX
  8
RIGHTSIDE
 10
601.730698
 20
176.231264
 30
0.0
 70
     8
  0
VERTEX
  8
RIGHTSIDE
 10
601.978389
 20
176.283258
 30
0.0
 70
     8
  0
VERTEX
  8
RIGHTSIDE
 10
602.227719
 20
176.345332
 30
0.0
 70
     8
  0
VERTEX
  8
RIGHTSIDE
 10
602.545051
 20
176.453346
 30
0.0
 70
     8
  0
VERTEX
  8
RIGHTSIDE
 10
603.004608
 20
176.650528
 30
0.0
 70
     8
  0
VERTEX
  8
RIGHTSIDE
 10
603.680613
 20
176.980111
 30
0.0
 70
     8
  0
VERTEX
  8
RIGHTSIDE
 10
604.647288
 20
177.485324
 30
0.0
 70
     8
  0
VERTEX
  8
RIGHTSIDE
 10
605.978857
 20
178.209399
 30
0.0
 70
     8
  0
VERTEX
  8
RIGHTSIDE
 10
607.749543
 20
179.195565
 30
0.0
 70
     8
  0
VERTEX
  8
RIGHTSIDE
 10
610.033568
 20
180.487054
 30
0.0
 70
     8
  0
VERTEX
  8
RIGHTSIDE
 10
600.631653
 20
176.026739
 30
0.0
 70
    16
  0
VERTEX
  8
RIGHTSIDE
 10
602.04475
 20
176.254367
 30
0.0
 70
    16
  0
VERTEX
  8
RIGHTSIDE
 10
603.192404
 20
176.597561
 30
0.0
 70
    16
  0
VERTEX
  8
RIGHTSIDE
 10
610.033568
 20
180.487054
 30
0.0
 70
    16
  0
SEQEND
  8
RIGHTSIDE
  0
POLYLINE
  8
RIGHTSIDE
 66
     1
 10
0.0
 20
0.0
 30
0.0
 75
     6
  0
VERTEX
  8
RIGHTSIDE
 10
597.549326
 20
175.839239
 30
0.0
  0
VERTEX
  8
RIGHTSIDE
 10
600.661915
 20
175.839239
 30
0.0
 42
0.080329
  0
VERTEX
  8
RIGHTSIDE
 10
602.080147
 20
176.068569
 30
0.0
 42
-0.014116
  0
VERTEX
  8
RIGHTSIDE
 10
603.192404
 20
176.403387
 30
0.0
  0
VERTEX
  8
RIGHTSIDE
 10
610.033568
 20
180.299554
 30
0.0
  0
SEQEND
  8
RIGHTSIDE
  0
POLYLINE
  8
RIGHTSIDE
 66
     1
 10
0.0
 20
0.0
 30
0.0
 75
     6
  0
VERTEX
  8
RIGHTSIDE
 10
599.04185
 20
169.089239
 30
0.0
 42
0.236603
  0
VERTEX
  8
RIGHTSIDE
 10
599.642762
 20
169.390457
 30
0.0
 42
-0.092007
  0
VERTEX
  8
RIGHTSIDE
 10
603.192404
 20
172.669722
 30
0.0
  0
VERTEX
  8
RIGHTSIDE
 10
610.033568
 20
176.872236
 30
0.0
  0
SEQEND
  8
RIGHTSIDE
  0
POLYLINE
  8
RIGHTSIDE
 66
     1
 10
0.0
 20
0.0
 30
0.0
 75
     6
  0
VERTEX
  8
RIGHTSIDE
 10
599.136235
 20
168.901739
 30
0.0
 42
0.238397
  0
VERTEX
  8
RIGHTSIDE
 10
599.740181
 20
169.207048
 30
0.0
 42
-0.091431
  0
VERTEX
  8
RIGHTSIDE
 10
603.192404
 20
172.44746
 30
0.0
  0
VERTEX
  8
RIGHTSIDE
 10
610.033568
 20
176.684736
 30
0.0
  0
SEQEND
  8
RIGHTSIDE
  0
LINE
  8
FRONTVIEW
  6
CONTINUOUS
 10
101.512603
 20
174.879667
 30
0.0
 11
101.512603
 21
171.476512
 31
0.0
  0
LINE
  8
FRONTVIEW
  6
CONTINUOUS
 10
100.238768
 20
174.879667
 30
0.0
 11
100.238768
 21
171.476512
 31
0.0
  0
ARC
  8
FRONTVIEW
 10
105.686665
 20
118.407602
 30
0.0
 40
60.786467
 50
22.864084
 51
91.101413
  0
LINE
  8
FRONTVIEW
 10
153.550192
 20
108.905661
 30
0.0
 11
153.550192
 21
136.672225
 31
0.0
  0
ARC
  8
FRONTVIEW
 10
104.431809
 20
124.203457
 30
0.0
 40
50.676283
 50
14.24374
 51
90.097699
  0
ARC
  8
FRONTVIEW
 10
147.87565
 20
136.197771
 30
0.0
 40
15.0
 50
14.834589
 51
22.864084
  0
LINE
  8
FRONTVIEW
 10
87.375681
 20
180.055699
 30
0.0
 11
87.375681
 21
181.04381
 31
0.0
  0
LINE
  8
FRONTVIEW
 10
112.875681
 20
170.010709
 30
0.0
 11
112.875681
 21
174.171314
 31
0.0
  0
LINE
  8
FRONTVIEW
 10
88.875681
 20
170.010707
 30
0.0
 11
88.875681
 21
180.055699
 31
0.0
  0
LINE
  8
FRONTVIEW
 10
114.375688
 20
181.04381
 30
0.0
 11
114.375688
 21
180.055699
 31
0.0
  0
LINE
  8
FRONTVIEW
 10
114.375688
 20
181.04381
 30
0.0
 11
87.375681
 21
181.04381
 31
0.0
  0
LINE
  8
FRONTVIEW
 10
114.375688
 20
180.055699
 30
0.0
 11
87.375681
 21
180.055699
 31
0.0
  0
LINE
  8
FRONTVIEW
 10
115.129437
 20
173.737753
 30
0.0
 11
116.878428
 21
168.834811
 31
0.0
  0
LINE
  8
FRONTVIEW
 10
112.875681
 20
178.767461
 30
0.0
 11
112.875681
 21
180.055699
 31
0.0
  0
LINE
  8
FRONTVIEW
  6
CENTER
 10
100.875685
 20
186.827521
 30
0.0
 11
100.875685
 21
46.25713
 31
0.0
  0
CIRCLE
  8
PLANVIEW
 10
598.453882
 20
321.589396
 30
0.0
 40
1.692205
  0
ARC
  8
PLANVIEW
 10
598.453882
 20
321.589396
 30
0.0
 40
3.001473
 50
157.740821
 51
340.630729
  0
LINE
  8
PLANVIEW
 10
620.455356
 20
357.616261
 30
0.0
 11
631.873019
 21
357.616261
 31
0.0
  0
LINE
  8
PLANVIEW
 10
631.873019
 20
356.033756
 30
0.0
 11
633.455356
 21
356.033756
 31
0.0
  0
LINE
  8
PLANVIEW
 10
631.873019
 20
361.391151
 30
0.0
 11
633.455356
 21
361.391151
 31
0.0
  0
LINE
  8
PLANVIEW
 10
631.873019
 20
361.391151
 30
0.0
 11
631.873019
 21
356.033756
 31
0.0
  0
LINE
  8
PLANVIEW
 10
633.455356
 20
361.391151
 30
0.0
 11
633.455356
 21
356.033756
 31
0.0
  0
LINE
  8
PLANVIEW
 10
620.455356
 20
359.808645
 30
0.0
 11
631.873019
 21
359.808645
 31
0.0
  0
LINE
  8
PLANVIEW
 10
620.455356
 20
314.712454
 30
0.0
 11
620.455356
 21
402.712454
 31
0.0
  0
LINE
  8
PLANVIEW
 10
615.455356
 20
407.712454
 30
0.0
 11
602.455356
 21
407.712454
 31
0.0
  0
ARC
  8
PLANVIEW
 10
615.455356
 20
402.712454
 30
0.0
 40
5.0
 50
0.0
 51
90.0
  0
ARC
  8
PLANVIEW
 10
615.455356
 20
314.712454
 30
0.0
 40
5.0
 50
270.0
 51
0.0
  0
ARC
  8
PLANVIEW
  6
DASHED
 10
598.453882
 20
321.589396
 30
0.0
 40
39.714956
 50
288.648607
 51
76.424908
  0
LINE
  8
PLANVIEW
 10
610.715197
 20
359.470047
 30
0.0
 11
595.676079
 21
322.726344
 31
0.0
  0
LINE
  8
PLANVIEW
 10
614.452958
 20
358.049143
 30
0.0
 11
601.285474
 21
320.593941
 31
0.0
  0
CIRCLE
  8
PLANVIEW
 10
612.566157
 20
358.712454
 30
0.0
 40
1.229477
  0
LINE
  8
PLANVIEW
 10
600.455356
 20
319.352669
 30
0.0
 11
600.455356
 21
307.712454
 31
0.0
  0
LINE
  8
PLANVIEW
  6
DASHED
 10
625.738046
 20
281.664231
 30
0.0
 11
634.071668
 21
273.859504
 31
0.0
  0
LINE
  8
PLANVIEW
  6
DASHED
 10
636.308345
 20
273.932925
 30
0.0
 11
632.646212
 21
270.022623
 31
0.0
  0
LINE
  8
PLANVIEW
  6
DASHED
 10
635.153415
 20
275.014557
 30
0.0
 11
631.491282
 21
271.104255
 31
0.0
  0
LINE
  8
PLANVIEW
  6
DASHED
 10
635.153415
 20
275.014557
 30
0.0
 11
636.308345
 21
273.932925
 31
0.0
  0
LINE
  8
PLANVIEW
  6
DASHED
 10
631.491282
 20
271.104255
 30
0.0
 11
632.646212
 21
270.022623
 31
0.0
  0
LINE
  8
PLANVIEW
  6
DASHED
 10
624.239406
 20
280.064035
 30
0.0
 11
632.573029
 21
272.259308
 31
0.0
  0
LINE
  8
PLANVIEW
  6
DASHED
 10
624.847161
 20
280.712975
 30
0.0
 11
624.847161
 21
280.712975
 31
0.0
  0
LINE
  8
PLANVIEW
  6
DASHED
 10
624.847161
 20
280.712975
 30
0.0
 11
624.847161
 21
280.712975
 31
0.0
  0
LINE
  8
PLANVIEW
  6
DASHED
 10
624.847161
 20
280.712975
 30
0.0
 11
624.847161
 21
280.712975
 31
0.0
  0
LINE
  8
PLANVIEW
  6
DASHED
 10
624.847161
 20
280.712975
 30
0.0
 11
624.847161
 21
280.712975
 31
0.0
  0
ARC
  8
PLANVIEW
  6
DASHED
 10
377.354077
 20
303.895326
 30
0.0
 40
105.933639
 50
91.483597
 51
178.528859
  0
LINE
  8
PLANVIEW
 10
366.054768
 20
309.712454
 30
0.0
 11
373.337814
 21
309.712454
 31
0.0
  0
LINE
  8
PLANVIEW
 10
378.455356
 20
407.712454
 30
0.0
 11
366.054768
 21
407.712454
 31
0.0
  0
ARC
  8
PLANVIEW
 10
366.054768
 20
314.712454
 30
0.0
 40
5.0
 50
180.0
 51
270.0
  0
ARC
  8
PLANVIEW
 10
366.054768
 20
402.712454
 30
0.0
 40
5.0
 50
90.0
 51
180.0
  0
LINE
  8
PLANVIEW
  6
DASHED
 10
273.455356
 20
302.203614
 30
0.0
 11
273.455356
 21
289.181108
 31
0.0
  0
ARC
  8
PLANVIEW
  6
DASHED
 10
278.455356
 20
289.181108
 30
0.0
 40
5.0
 50
180.0
 51
270.0
  0
LINE
  8
PLANVIEW
  6
DASHED
 10
278.455356
 20
284.181108
 30
0.0
 11
366.455356
 21
284.181108
 31
0.0
  0
LINE
  8
PLANVIEW
  6
DASHED
 10
371.455356
 20
289.181108
 30
0.0
 11
371.455356
 21
302.203614
 31
0.0
  0
ARC
  8
PLANVIEW
  6
DASHED
 10
366.455356
 20
289.181108
 30
0.0
 40
5.0
 50
270.0
 51
0.0
  0
LINE
  8
PLANVIEW
  6
DASHED
 10
330.354809
 20
273.203614
 30
0.0
 11
330.354809
 21
284.181108
 31
0.0
  0
LINE
  8
PLANVIEW
  6
DASHED
 10
330.354809
 20
273.203614
 30
0.0
 11
314.555904
 21
273.203614
 31
0.0
  0
LINE
  8
PLANVIEW
  6
DASHED
 10
314.555904
 20
273.203614
 30
0.0
 11
314.555904
 21
284.181108
 31
0.0
  0
LINE
  8
PLANVIEW
  6
DASHED
 10
373.455356
 20
302.203614
 30
0.0
 11
373.455356
 21
303.203614
 31
0.0
  0
LINE
  8
PLANVIEW
  6
DASHED
 10
358.356166
 20
309.712454
 30
0.0
 11
192.455356
 21
309.712454
 31
0.0
  0
LINE
  8
PLANVIEW
  6
DASHED
 10
358.356166
 20
407.712454
 30
0.0
 11
192.455356
 21
407.712454
 31
0.0
  0
CIRCLE
  8
PLANVIEW
 10
391.955359
 20
358.712454
 30
0.0
 40
13.500004
  0
CIRCLE
  8
PLANVIEW
 10
391.955359
 20
358.712454
 30
0.0
 40
11.957533
  0
LINE
  8
PLANVIEW
 10
615.455356
 20
309.712454
 30
0.0
 11
602.455356
 21
309.712454
 31
0.0
  0
ARC
  8
RIGHTSIDE
  6
CONTINUOUS
 10
423.747953
 20
145.632538
 30
0.0
 40
0.5
 50
270.0
 51
0.098101
  0
ARC
  8
RIGHTSIDE
  6
CONTINUOUS
 10
419.48952
 20
145.632538
 30
0.0
 40
0.5
 50
180.098875
 51
270.0
  0
ARC
  8
RIGHTSIDE
  6
CONTINUOUS
 10
423.747953
 20
165.948492
 30
0.0
 40
0.5
 50
359.901898
 51
90.0
  0
ARC
  8
RIGHTSIDE
  6
CONTINUOUS
 10
419.48952
 20
165.948492
 30
0.0
 40
0.5
 50
90.0
 51
179.901125
  0
ARC
  8
RIGHTSIDE
 10
425.755365
 20
151.974734
 30
0.0
 40
1.0
 50
103.221472
 51
179.869697
  0
LINE
  8
RIGHTSIDE
  6
CONTINUOUS
 10
419.510525
 20
165.27637
 30
0.0
 11
423.745056
 21
165.27637
 31
0.0
  0
LINE
  8
RIGHTSIDE
  6
CONTINUOUS
 10
419.48952
 20
145.132538
 30
0.0
 11
423.747953
 21
145.132538
 31
0.0
  0
LINE
  8
RIGHTSIDE
  6
CONTINUOUS
 10
419.48952
 20
166.448492
 30
0.0
 11
423.747953
 21
166.448492
 31
0.0
  0
ARC
  8
RIGHTSIDE
  6
CONTINUOUS
 10
421.619591
 20
177.313431
 30
0.0
 40
1.525326
 50
314.37119
 51
225.62881
  0
LINE
  8
RIGHTSIDE
  6
CONTINUOUS
 10
420.552924
 20
145.134283
 30
0.0
 11
420.552924
 21
123.772969
 31
0.0
  0
LINE
  8
RIGHTSIDE
  6
CONTINUOUS
 10
422.686257
 20
145.132538
 30
0.0
 11
422.686257
 21
123.772969
 31
0.0
  0
ARC
  8
RIGHTSIDE
  6
CONTINUOUS
 10
421.619591
 20
177.313431
 30
0.0
 40
1.066706
 50
359.509422
 51
180.490578
  0
LINE
  8
RIGHTSIDE
  6
CONTINUOUS
 10
430.740199
 20
162.816203
 30
0.0
 11
430.740199
 21
162.316204
 31
0.0
  0
LINE
  8
RIGHTSIDE
  6
CONTINUOUS
 10
433.364948
 20
163.275957
 30
0.0
 11
433.364948
 21
162.816203
 31
0.0
  0
LINE
  8
RIGHTSIDE
  6
CONTINUOUS
 10
440.517597
 20
163.275957
 30
0.0
 11
440.517597
 21
162.316204
 31
0.0
  0
LINE
  8
RIGHTSIDE
  6
CONTINUOUS
 10
430.740199
 20
162.316204
 30
0.0
 11
440.517597
 21
162.316204
 31
0.0
  0
LINE
  8
RIGHTSIDE
  6
CONTINUOUS
 10
440.517597
 20
163.275957
 30
0.0
 11
433.364948
 21
163.275957
 31
0.0
  0
LINE
  8
RIGHTSIDE
  6
CONTINUOUS
 10
430.740199
 20
162.816203
 30
0.0
 11
440.516318
 21
162.816203
 31
0.0
  0
ARC
  8
RIGHTSIDE
 10
433.210854
 20
162.320693
 30
0.0
 40
2.433514
 50
269.840645
 51
310.249008
  0
ARC
  8
RIGHTSIDE
  6
CONTINUOUS
 10
421.619591
 20
123.772222
 30
0.0
 40
2.026873
 50
121.753237
 51
58.246763
  0
ARC
  8
RIGHTSIDE
  6
CONTINUOUS
 10
421.619591
 20
123.772222
 30
0.0
 40
1.066706
 50
179.509422
 51
0.490578
  0
LINE
  8
RIGHTSIDE
  6
CONTINUOUS
 10
422.686257
 20
177.322564
 30
0.0
 11
422.686257
 21
166.448492
 31
0.0
  0
LINE
  8
RIGHTSIDE
  6
CONTINUOUS
 10
420.552924
 20
177.322564
 30
0.0
 11
420.552924
 21
166.448492
 31
0.0
  0
LINE
  8
RIGHTSIDE
 10
418.507747
 20
164.279157
 30
0.0
 11
418.46331
 21
147.301875
 31
0.0
  0
LINE
  8
RIGHTSIDE
 10
425.778832
 20
159.889653
 30
0.0
 11
433.204086
 21
159.887188
 31
0.0
  0
LINE
  8
RIGHTSIDE
 10
419.460525
 20
146.299098
 30
0.0
 11
423.741939
 21
146.295944
 31
0.0
  0
ARC
  8
RIGHTSIDE
 10
435.052325
 20
162.135794
 30
0.0
 40
4.425234
 50
292.72343
 51
2.168935
  0
ARC
  8
RIGHTSIDE
 10
433.210854
 20
162.320693
 30
0.0
 40
2.433514
 50
321.783307
 51
359.840645
  0
LINE
  8
RIGHTSIDE
 10
434.52209
 20
160.899728
 30
0.0
 11
436.715248
 21
157.233886
 31
0.0
  0
LINE
  8
RIGHTSIDE
 10
434.843789
 20
161.285316
 30
0.0
 11
436.994065
 21
157.662595
 31
0.0
  0
ARC
  8
RIGHTSIDE
 10
434.769889
 20
158.804102
 30
0.0
 40
2.499999
 50
321.090906
 51
332.831874
  0
ARC
  8
RIGHTSIDE
 10
433.210854
 20
162.320693
 30
0.0
 40
1.933515
 50
312.70015
 51
327.622896
  0
ARC
  8
RIGHTSIDE
 10
419.507744
 20
164.276375
 30
0.0
 40
1.0
 50
89.840645
 51
179.840645
  0
ARC
  8
RIGHTSIDE
 10
419.463306
 20
147.299094
 30
0.0
 40
1.0
 50
179.840645
 51
269.840645
  0
ARC
  8
RIGHTSIDE
 10
423.74472
 20
147.29594
 30
0.0
 40
1.0
 50
269.840645
 51
359.840645
  0
LINE
  8
RIGHTSIDE
 10
424.744716
 20
147.293159
 30
0.0
 11
424.755368
 21
151.977008
 31
0.0
  0
ARC
  8
RIGHTSIDE
 10
423.739018
 20
164.226388
 30
0.0
 40
1.05
 50
359.840645
 51
89.670485
  0
ARC
  8
RIGHTSIDE
 10
418.403335
 20
183.26752
 30
0.0
 40
31.144841
 50
283.221472
 51
305.215451
  0
LINE
  8
RIGHTSIDE
 10
424.247952
 20
165.947636
 30
0.0
 11
424.246574
 21
165.142537
 31
0.0
  0
LINE
  8
RIGHTSIDE
 10
418.989521
 20
165.949355
 30
0.0
 11
418.988108
 21
165.130762
 31
0.0
  0
LINE
  8
RIGHTSIDE
 10
424.779758
 20
160.892433
 30
0.0
 11
424.789014
 21
164.22044
 31
0.0
  0
ARC
  8
RIGHTSIDE
 10
425.779753
 20
160.889652
 30
0.0
 40
1.0
 50
179.840645
 51
269.947215
  0
LINE
  8
RIGHTSIDE
 10
418.989521
 20
145.631676
 30
0.0
 11
418.988162
 21
146.419186
 31
0.0
  0
LINE
  8
RIGHTSIDE
 10
424.247952
 20
145.633394
 30
0.0
 11
424.246587
 21
146.430995
 31
0.0
  0
ARC
  8
PLANVIEW
  6
CONTINUOUS
 10
421.865448
 20
358.712454
 30
0.0
 40
2.205666
 50
298.920975
 51
241.079025
  0
ARC
  8
PLANVIEW
  6
CONTINUOUS
 10
421.865448
 20
358.712454
 30
0.0
 40
1.067984
 50
357.153517
 51
182.846483
  0
LINE
  8
PLANVIEW
 10
422.932114
 20
306.075508
 30
0.0
 11
422.932114
 21
358.737495
 31
0.0
  0
LINE
  8
PLANVIEW
 10
420.798781
 20
306.075508
 30
0.0
 11
420.798781
 21
358.737495
 31
0.0
  0
LINE
  8
FRONTVIEW
  6
CONTINUOUS
 10
157.023052
 20
90.653471
 30
0.0
 11
149.023052
 21
90.653471
 31
0.0
  0
LINE
  8
FRONTVIEW
  6
CONTINUOUS
 10
149.023052
 20
106.782665
 30
0.0
 11
149.023052
 21
90.653471
 31
0.0
  0
LINE
  8
FRONTVIEW
  6
CONTINUOUS
 10
157.870151
 20
162.195349
 30
0.0
 11
148.339586
 21
162.195349
 31
0.0
  0
LINE
  8
FRONTVIEW
  6
CONTINUOUS
 10
157.870151
 20
166.074339
 30
0.0
 11
148.339586
 21
166.074339
 31
0.0
  0
POLYLINE
  8
FRONTVIEW
  6
CONTINUOUS
 66
     1
 10
0.0
 20
0.0
 30
0.0
  0
VERTEX
  8
FRONTVIEW
  6
CONTINUOUS
 10
150.247185
 20
159.751944
 30
0.0
 42
-0.061908
 70
     2
 50
111.516441
  0
VERTEX
  8
FRONTVIEW
  6
CONTINUOUS
 10
151.567422
 20
161.536159
 30
0.0
 42
-0.205339
  0
VERTEX
  8
FRONTVIEW
  6
CONTINUOUS
 10
153.104868
 20
162.195349
 30
0.0
 42
-0.205339
  0
SEQEND
  8
FRONTVIEW
  6
CONTINUOUS
  0
ARC
  8
FRONTVIEW
  6
CONTINUOUS
 10
148.339586
 20
165.164339
 30
0.0
 40
0.91
 50
90.0
 51
180.0
  0
LINE
  8
FRONTVIEW
 10
152.221736
 20
166.074339
 30
0.0
 11
152.221736
 21
174.995635
 31
0.0
  0
LINE
  8
FRONTVIEW
 10
155.366192
 20
177.587378
 30
0.0
 11
150.843544
 21
177.587378
 31
0.0
  0
ARC
  8
FRONTVIEW
 10
151.422913
 20
175.324076
 30
0.0
 40
0.666667
 50
0.0
 51
90.0
  0
LINE
  8
FRONTVIEW
 10
152.08958
 20
174.995635
 30
0.0
 11
154.120157
 21
174.995635
 31
0.0
  0
LINE
  8
FRONTVIEW
 10
152.08958
 20
175.324076
 30
0.0
 11
152.08958
 21
174.995635
 31
0.0
  0
LINE
  8
FRONTVIEW
 10
151.422913
 20
175.990743
 30
0.0
 11
150.843544
 21
175.990743
 31
0.0
  0
LINE
  8
FRONTVIEW
 10
150.843544
 20
175.990743
 30
0.0
 11
150.843544
 21
177.587378
 31
0.0
  0
LINE
  8
FRONTVIEW
  6
CENTER
 10
147.429586
 20
163.105349
 30
0.0
 11
147.429586
 21
165.164339
 31
0.0
  0
LINE
  8
FRONTVIEW
  6
CONTINUOUS
 10
160.576064
 20
152.777092
 30
0.0
 11
161.442556
 21
152.777092
 31
0.0
  0
LINE
  8
FRONTVIEW
  6
CONTINUOUS
 10
160.576064
 20
153.23398
 30
0.0
 11
161.442556
 21
153.23398
 31
0.0
  0
LINE
  8
FRONTVIEW
  6
CONTINUOUS
 10
162.3646
 20
154.752457
 30
0.0
 11
161.442556
 21
154.156448
 31
0.0
  0
LINE
  8
FRONTVIEW
  6
CONTINUOUS
 10
162.3646
 20
151.155855
 30
0.0
 11
162.3646
 21
154.752457
 31
0.0
  0
LINE
  8
FRONTVIEW
  6
CONTINUOUS
 10
161.442556
 20
151.936831
 30
0.0
 11
162.3646
 21
151.155855
 31
0.0
  0
LINE
  8
FRONTVIEW
  6
CONTINUOUS
 10
161.442556
 20
154.156448
 30
0.0
 11
161.442556
 21
151.936831
 31
0.0
  0
LINE
  8
FRONTVIEW
  6
CONTINUOUS
 10
161.442556
 20
144.887492
 30
0.0
 11
161.442556
 21
147.107109
 31
0.0
  0
LINE
  8
FRONTVIEW
  6
CONTINUOUS
 10
161.442556
 20
147.107109
 30
0.0
 11
162.3646
 21
147.888086
 31
0.0
  0
LINE
  8
FRONTVIEW
  6
CONTINUOUS
 10
162.3646
 20
147.888086
 30
0.0
 11
162.3646
 21
144.291484
 31
0.0
  0
LINE
  8
FRONTVIEW
  6
CONTINUOUS
 10
162.3646
 20
144.291484
 30
0.0
 11
161.442556
 21
144.887492
 31
0.0
  0
LINE
  8
FRONTVIEW
  6
CONTINUOUS
 10
160.576064
 20
145.809961
 30
0.0
 11
161.442556
 21
145.809961
 31
0.0
  0
LINE
  8
FRONTVIEW
  6
CONTINUOUS
 10
160.576064
 20
146.266849
 30
0.0
 11
161.442556
 21
146.266849
 31
0.0
  0
LINE
  8
FRONTVIEW
  6
CONTINUOUS
 10
157.376225
 20
155.656745
 30
0.0
 11
158.917729
 21
155.656745
 31
0.0
  0
LINE
  8
FRONTVIEW
  6
CONTINUOUS
 10
160.597658
 20
158.287402
 30
0.0
 11
158.917729
 21
158.287402
 31
0.0
  0
ARC
  8
FRONTVIEW
  6
CONTINUOUS
 10
157.870151
 20
163.105349
 30
0.0
 40
0.91
 50
270.0
 51
0.0
  0
ARC
  8
FRONTVIEW
  6
CONTINUOUS
 10
157.870151
 20
165.164339
 30
0.0
 40
0.91
 50
0.0
 51
90.0
  0
LINE
  8
FRONTVIEW
  6
CENTER
 10
158.780151
 20
163.105349
 30
0.0
 11
158.780151
 21
165.164339
 31
0.0
  0
LINE
  8
FRONTVIEW
  6
CONTINUOUS
 10
160.597658
 20
144.480142
 30
0.0
 11
160.597658
 21
158.287402
 31
0.0
  0
LINE
  8
FRONTVIEW
  6
CONTINUOUS
 10
158.917729
 20
158.287402
 30
0.0
 11
158.917729
 21
147.758042
 31
0.0
  0
LINE
  8
FRONTVIEW
 10
153.942575
 20
166.074339
 30
0.0
 11
153.942575
 21
174.995635
 31
0.0
  0
LINE
  8
FRONTVIEW
 10
155.366192
 20
175.990743
 30
0.0
 11
155.366192
 21
177.587378
 31
0.0
  0
LINE
  8
FRONTVIEW
 10
154.786823
 20
175.990743
 30
0.0
 11
155.366192
 21
175.990743
 31
0.0
  0
ARC
  8
FRONTVIEW
 10
154.786823
 20
175.324076
 30
0.0
 40
0.666667
 50
90.0
 51
180.0
  0
LINE
  8
FRONTVIEW
 10
154.120157
 20
174.995635
 30
0.0
 11
154.120157
 21
175.324076
 31
0.0
  0
LINE
  8
FRONTVIEW
  6
CONTINUOUS
 10
158.917729
 20
154.629145
 30
0.0
 11
157.554767
 21
154.629145
 31
0.0
  0
LINE
  8
FRONTVIEW
 10
120.850814
 20
177.272219
 30
0.0
 11
150.843544
 21
177.272219
 31
0.0
  0
LINE
  8
FRONTVIEW
 10
124.271183
 20
176.283419
 30
0.0
 11
150.843544
 21
176.283419
 31
0.0
  0
LINE
  8
PLANVIEW
 10
439.051805
 20
307.712454
 30
0.0
 11
602.455356
 21
307.712454
 31
0.0
  0
LINE
  8
RIGHTSIDE
 10
420.552924
 20
173.804775
 30
0.0
 11
403.955356
 21
173.804775
 31
0.0
  0
LINE
  8
FRONTVIEW
  6
CONTINUOUS
 10
157.023052
 20
106.782665
 30
0.0
 11
157.023052
 21
90.653471
 31
0.0
  0
ARC
  8
FRONTVIEW
  6
CONTINUOUS
 10
148.339586
 20
163.105349
 30
0.0
 40
0.91
 50
180.0
 51
270.0
  0
POLYLINE
  8
FRONTVIEW
  6
CONTINUOUS
 66
     1
 10
0.0
 20
0.0
 30
0.0
  0
VERTEX
  8
FRONTVIEW
  6
CONTINUOUS
 10
157.895868
 20
149.539477
 30
0.0
 42
0.004007
 50
68.483559
  0
VERTEX
  8
FRONTVIEW
  6
CONTINUOUS
 10
157.899823
 20
150.032884
 30
0.0
 42
0.04049
  0
VERTEX
  8
FRONTVIEW
  6
CONTINUOUS
 10
157.497389
 20
154.994278
 30
0.0
 42
0.053466
  0
VERTEX
  8
FRONTVIEW
  6
CONTINUOUS
 10
156.495413
 20
158.633046
 30
0.0
 42
0.09659
 70
     2
 50
111.516441
  0
VERTEX
  8
FRONTVIEW
  6
CONTINUOUS
 10
154.642315
 20
161.536159
 30
0.0
 42
0.205339
 50
111.516441
  0
VERTEX
  8
FRONTVIEW
  6
CONTINUOUS
 10
153.104868
 20
162.195349
 30
0.0
 42
0.205339
  0
SEQEND
  8
FRONTVIEW
  6
CONTINUOUS
  0
LINE
  8
FRONTVIEW
 10
153.550192
 20
122.711445
 30
0.0
 11
150.585013
 21
122.711445
 31
0.0
  0
LINE
  8
FRONTVIEW
 10
153.550192
 20
124.833
 30
0.0
 11
150.499153
 21
124.833
 31
0.0
  0
LINE
  8
FRONTVIEW
  6
CENTER
 10
171.927178
 20
123.804775
 30
0.0
 11
47.26944
 21
123.804775
 31
0.0
  0
LINE
  8
FRONTVIEW
 10
164.648688
 20
53.04381
 30
0.0
 11
140.483479
 21
53.04381
 31
0.0
  0
LINE
  8
PLANVIEW
  6
DASHED
 10
654.455356
 20
320.137048
 30
0.0
 11
654.455356
 21
360.020943
 31
0.0
  0
LINE
  8
CAPTIONS
  6
DASHED
 10
447.505334
 20
249.712454
 30
0.0
 11
577.703502
 21
249.712454
 31
0.0
  0
TEXT
  8
CAPTIONS
  6
CONTINUOUS
 10
447.699763
 20
251.270741
 30
0.0
 40
5.0
  1
Rear door clearance at side
  7
ROMANS
  0
LINE
  8
PLANVIEW
 10
385.804515
 20
297.212454
 30
0.0
 11
415.774376
 21
297.212454
 31
0.0
  0
LINE
  8
PLANVIEW
 10
385.804515
 20
305.212454
 30
0.0
 11
415.774376
 21
305.212454
 31
0.0
  0
LINE
  8
PLANVIEW
 10
385.804515
 20
297.212454
 30
0.0
 11
385.804515
 21
305.212454
 31
0.0
  0
LINE
  8
PLANVIEW
 10
415.774376
 20
297.212454
 30
0.0
 11
415.774376
 21
305.212454
 31
0.0
  0
LINE
  8
PLANVIEW
 10
425.997324
 20
300.421673
 30
0.0
 11
439.051805
 21
300.421673
 31
0.0
  0
ARC
  8
PLANVIEW
  6
CONTINUOUS
 10
421.865448
 20
306.094533
 30
0.0
 40
1.066836
 50
181.021808
 51
358.978192
  0
LINE
  8
PLANVIEW
 10
424.155802
 20
297.212454
 30
0.0
 11
419.986706
 21
297.212454
 31
0.0
  0
ARC
  8
PLANVIEW
 10
422.742159
 20
306.109173
 30
0.0
 40
5.352655
 50
179.861012
 51
287.333155
  0
LINE
  8
PLANVIEW
 10
424.336861
 20
300.999589
 30
0.0
 11
425.997324
 21
300.421673
 31
0.0
  0
LINE
  8
PLANVIEW
 10
421.481685
 20
297.752788
 30
0.0
 11
421.481685
 21
298.453467
 31
0.0
  0
LINE
  8
PLANVIEW
 10
422.660823
 20
300.757135
 30
0.0
 11
422.660823
 21
300.424101
 31
0.0
  0
LINE
  8
PLANVIEW
 10
424.155802
 20
297.752788
 30
0.0
 11
419.986706
 21
297.752788
 31
0.0
  0
LINE
  8
PLANVIEW
 10
424.155802
 20
297.752788
 30
0.0
 11
424.155802
 21
297.212454
 31
0.0
  0
LINE
  8
PLANVIEW
 10
419.986706
 20
297.752788
 30
0.0
 11
419.986706
 21
297.212454
 31
0.0
  0
LINE
  8
PLANVIEW
  6
CONTINUOUS
 10
421.085937
 20
298.453467
 30
0.0
 11
423.056571
 21
298.453467
 31
0.0
  0
LINE
  8
PLANVIEW
  6
CONTINUOUS
 10
423.056571
 20
298.453467
 30
0.0
 11
423.056571
 21
300.424101
 31
0.0
  0
LINE
  8
PLANVIEW
  6
CONTINUOUS
 10
423.056571
 20
300.424101
 30
0.0
 11
421.085937
 21
300.424101
 31
0.0
  0
LINE
  8
PLANVIEW
  6
CONTINUOUS
 10
421.085937
 20
300.424101
 30
0.0
 11
421.085937
 21
298.453467
 31
0.0
  0
LINE
  8
PLANVIEW
 10
422.660823
 20
298.453467
 30
0.0
 11
422.660823
 21
297.752788
 31
0.0
  0
LINE
  8
PLANVIEW
 10
421.481685
 20
300.424101
 30
0.0
 11
421.481685
 21
300.907046
 31
0.0
  0
LINE
  8
PLANVIEW
 10
425.997324
 20
311.796673
 30
0.0
 11
439.051805
 21
311.796673
 31
0.0
  0
LINE
  8
PLANVIEW
 10
439.051805
 20
311.796673
 30
0.0
 11
439.051805
 21
300.421673
 31
0.0
  0
ARC
  8
PLANVIEW
 10
421.912942
 20
306.105794
 30
0.0
 40
2.298745
 50
118.991636
 51
63.681507
  0
ARC
  8
PLANVIEW
  6
CONTINUOUS
 10
422.742159
 20
306.109173
 30
0.0
 40
5.352655
 50
72.666845
 51
87.966257
  0
LINE
  8
PLANVIEW
  6
CONTINUOUS
 10
424.336861
 20
311.218756
 30
0.0
 11
425.997324
 21
311.796673
 31
0.0
  0
ARC
  8
PLANVIEW
  6
CONTINUOUS
 10
422.742159
 20
306.109173
 30
0.0
 40
5.352655
 50
111.288727
 51
179.861012
  0
ARC
  8
RIGHTSIDE
 10
370.333066
 20
173.179207
 30
0.0
 40
3.0
 50
180.0
 51
200.128078
  0
ARC
  8
RIGHTSIDE
 10
374.080567
 20
173.091947
 30
0.0
 40
3.0
 50
180.0
 51
201.843806
  0
ENDSEC
  0
EOF
