  0
SECTION
  2
HEADER
  9
$ACADVER
  1
AC1009
  9
$INSBASE
 10
0.0
 20
0.0
 30
0.0
  9
$EXTMIN
 10
37.102682
 20
0.765793
 30
0.0
  9
$EXTMAX
 10
910.152
 20
508.426259
 30
0.0
  9
$LIMMIN
 10
0.0
 20
0.0
  9
$LIMMAX
 10
700.0
 20
550.0
  9
$ORTHOMODE
 70
     1
  9
$REGENMODE
 70
     1
  9
$FILLMODE
 70
     1
  9
$QTEXTMODE
 70
     0
  9
$MIRRTEXT
 70
     1
  9
$DRAGMODE
 70
     2
  9
$LTSCALE
 40
8.0
  9
$OSMODE
 70
     0
  9
$ATTMODE
 70
     1
  9
$TEXTSIZE
 40
4.98
  9
$TRACEWID
 40
0.05
  9
$TEXTSTYLE
  7
ROMANT
  9
$CLAYER
  8
0
  9
$CELTYPE
  6
BYLAYER
  9
$CECOLOR
 62
   256
  9
$DIMSCALE
 40
1.0
  9
$DIMASZ
 40
5.0
  9
$DIMEXO
 40
0.0625
  9
$DIMDLI
 40
0.38
  9
$DIMRND
 40
0.0
  9
$DIMDLE
 40
0.0
  9
$DIMEXE
 40
0.18
  9
$DIMTP
 40
0.0
  9
$DIMTM
 40
0.0
  9
$DIMTXT
 40
4.0
  9
$DIMCEN
 40
0.09
  9
$DIMTSZ
 40
0.0
  9
$DIMTOL
 70
     0
  9
$DIMLIM
 70
     0
  9
$DIMTIH
 70
     1
  9
$DIMTOH
 70
     1
  9
$DIMSE1
 70
     0
  9
$DIMSE2
 70
     0
  9
$DIMTAD
 70
     0
  9
$DIMZIN
 70
     0
  9
$DIMBLK
  1

  9
$DIMASO
 70
     1
  9
$DIMSHO
 70
     0
  9
$DIMPOST
  1

  9
$DIMAPOST
  1

  9
$DIMALT
 70
     0
  9
$DIMALTD
 70
     2
  9
$DIMALTF
 40
25.4
  9
$DIMLFAC
 40
1.0
  9
$DIMTOFL
 70
     0
  9
$DIMTVP
 40
0.0
  9
$DIMTIX
 70
     1
  9
$DIMSOXD
 70
     0
  9
$DIMSAH
 70
     0
  9
$DIMBLK1
  1

  9
$DIMBLK2
  1

  9
$DIMSTYLE
  2
*UNNAMED
  9
$DIMCLRD
 70
     0
  9
$DIMCLRE
 70
     0
  9
$DIMCLRT
 70
     0
  9
$DIMTFAC
 40
1.0
  9
$DIMGAP
 40
0.09
  9
$LUNITS
 70
     2
  9
$LUPREC
 70
     4
  9
$AXISMODE
 70
     0
  9
$AXISUNIT
 10
0.0
 20
0.0
  9
$SKETCHINC
 40
0.1
  9
$FILLETRAD
 40
3.0
  9
$AUNITS
 70
     0
  9
$AUPREC
 70
     0
  9
$MENU
  1
acad
  9
$ELEVATION
 40
0.0
  9
$PELEVATION
 40
0.0
  9
$THICKNESS
 40
0.0
  9
$LIMCHECK
 70
     0
  9
$BLIPMODE
 70
     0
  9
$CHAMFERA
 40
0.0
  9
$CHAMFERB
 40
0.0
  9
$SKPOLY
 70
     0
  9
$TDCREATE
 40
2449708.600849884
  9
$TDUPDATE
 40
2449745.649149305
  9
$TDINDWG
 40
0.0197287037
  9
$TDUSRTIMER
 40
0.0197287037
  9
$USRTIMER
 70
     1
  9
$ANGBASE
 50
0.0
  9
$ANGDIR
 70
     0
  9
$PDMODE
 70
     0
  9
$PDSIZE
 40
0.0
  9
$PLINEWID
 40
0.0
  9
$COORDS
 70
     2
  9
$SPLFRAME
 70
     0
  9
$SPLINETYPE
 70
     6
  9
$SPLINESEGS
 70
     8
  9
$ATTDIA
 70
     1
  9
$ATTREQ
 70
     1
  9
$HANDLING
 70
     0
  9
$HANDSEED
  5
0
  9
$SURFTAB1
 70
     6
  9
$SURFTAB2
 70
     6
  9
$SURFTYPE
 70
     6
  9
$SURFU
 70
     6
  9
$SURFV
 70
     6
  9
$UCSNAME
  2

  9
$UCSORG
 10
0.0
 20
0.0
 30
0.0
  9
$UCSXDIR
 10
1.0
 20
0.0
 30
0.0
  9
$UCSYDIR
 10
0.0
 20
1.0
 30
0.0
  9
$PUCSNAME
  2

  9
$PUCSORG
 10
0.0
 20
0.0
 30
0.0
  9
$PUCSXDIR
 10
1.0
 20
0.0
 30
0.0
  9
$PUCSYDIR
 10
0.0
 20
1.0
 30
0.0
  9
$USERI1
 70
     0
  9
$USERI2
 70
     0
  9
$USERI3
 70
     0
  9
$USERI4
 70
     0
  9
$USERI5
 70
     0
  9
$USERR1
 40
0.0
  9
$USERR2
 40
0.0
  9
$USERR3
 40
0.0
  9
$USERR4
 40
0.0
  9
$USERR5
 40
0.0
  9
$WORLDVIEW
 70
     1
  9
$SHADEDGE
 70
     3
  9
$SHADEDIF
 70
    70
  9
$TILEMODE
 70
     1
  9
$MAXACTVP
 70
    16
  9
$PINSBASE
 10
0.0
 20
0.0
 30
0.0
  9
$PLIMCHECK
 70
     0
  9
$PEXTMIN
 10
1.000000E+20
 20
1.000000E+20
 30
1.000000E+20
  9
$PEXTMAX
 10
-1.000000E+20
 20
-1.000000E+20
 30
-1.000000E+20
  9
$PLIMMIN
 10
0.0
 20
0.0
  9
$PLIMMAX
 10
12.0
 20
9.0
  9
$UNITMODE
 70
     0
  9
$VISRETAIN
 70
     0
  0
ENDSEC
  0
SECTION
  2
TABLES
  0
TABLE
  2
VPORT
 70
     2
  0
VPORT
  2
*ACTIVE
 70
     0
 10
0.0
 20
0.0
 11
1.0
 21
1.0
 12
473.627341
 22
324.93847
 13
0.0
 23
0.0
 14
1.0
 24
1.0
 15
0.0
 25
0.0
 16
0.0
 26
0.0
 36
1.0
 17
0.0
 27
0.0
 37
0.0
 40
648.159127
 41
1.346968
 42
50.0
 43
0.0
 44
0.0
 50
0.0
 51
0.0
 71
     0
 72
   100
 73
     1
 74
     0
 75
     0
 76
     0
 77
     0
 78
     2
  0
ENDTAB
  0
TABLE
  2
LTYPE
 70
     3
  0
LTYPE
  2
CONTINUOUS
 70
    64
  3
Solid line
 72
    65
 73
     0
 40
0.0
  0
LTYPE
  2
DASHED
 70
    64
  3
__ __ __ __ __ __ __ __ __ __ __ __ __ __ __
 72
    65
 73
     2
 40
0.75
 49
0.5
 49
-0.25
  0
LTYPE
  2
CENTER
 70
    64
  3
____ _ ____ _ ____ _ ____ _ ____ _ ____ _ ____
 72
    65
 73
     4
 40
2.0
 49
1.25
 49
-0.25
 49
0.25
 49
-0.25
  0
ENDTAB
  0
TABLE
  2
LAYER
 70
     5
  0
LAYER
  2
0
 70
    64
 62
     7
  6
CONTINUOUS
  0
LAYER
  2
RIGHTSIDE
 70
    64
 62
     1
  6
CONTINUOUS
  0
LAYER
  2
PLANVIEW
 70
    64
 62
     2
  6
CONTINUOUS
  0
LAYER
  2
FRONTVIEW
 70
    64
 62
     3
  6
CONTINUOUS
  0
LAYER
  2
CAPTIONS
 70
    64
 62
     4
  6
CONTINUOUS
  0
ENDTAB
  0
TABLE
  2
STYLE
 70
     4
  0
STYLE
  2
STANDARD
 70
    64
 40
0.0
 41
1.0
 50
0.0
 71
     0
 42
4.98
  3
txt
  4

  0
STYLE
  2
ROMANS
 70
    64
 40
0.0
 41
1.0
 50
0.0
 71
     0
 42
4.98
  3
ROMANS
  4

  0
STYLE
  2
ROMANT
 70
    64
 40
0.0
 41
1.0
 50
0.0
 71
     0
 42
4.98
  3
ROMANT
  4

  0
STYLE
  2
ROMAND
 70
    64
 40
0.0
 41
1.0
 50
0.0
 71
     0
 42
2.0
  3
ROMAND
  4

  0
ENDTAB
  0
TABLE
  2
VIEW
 70
     0
  0
ENDTAB
  0
TABLE
  2
UCS
 70
     0
  0
ENDTAB
  0
TABLE
  2
APPID
 70
     1
  0
APPID
  2
ACAD
 70
    64
  0
ENDTAB
  0
TABLE
  2
DIMSTYLE
 70
     0
  0
ENDTAB
  0
ENDSEC
  0
SECTION
  2
BLOCKS
  0
BLOCK
  8
0
  2
GETDAT
 70
    66
 10
0.0
 20
0.0
 30
0.0
  1
GETDAT
  3
GETDAT
  0
ATTDEF
  8
0
 10
0.0
 20
0.0
 30
0.0
 40
1.0
  1
DIMDIAG
  3
DRAWING NAME.(10 CHARS): 
  2
DWGNAM
 70
     1
  0
ATTDEF
  8
0
 10
0.0
 20
0.0
 30
0.0
 40
1.0
  1
B
  3
DRAWING SIZE...(1 CHAR): 
  2
DWGSIZ
 70
     1
  0
ATTDEF
  8
0
 10
0.0
 20
0.0
 30
0.0
 40
1.0
  1
00
  3
REVISION......(2 CHARS): 
  2
DWGREV
 70
     1
  0
ATTDEF
  8
0
 10
0.0
 20
0.0
 30
0.0
 40
1.0
  1
01
  3
SHEET NUMBER..(2 CHARS): 
  2
DWGSHT
 70
     1
  0
ATTDEF
  8
0
 10
0.0
 20
0.0
 30
0.0
 40
1.0
  1
01
  3
OF............(2 CHARS): 
  2
DWGOF
 70
     1
  0
ATTDEF
  8
0
 10
0.0
 20
0.0
 30
0.0
 40
1.0
  1
 
  3
DISTRIBUTION..(2 CHARS): 
  2
DWGDIST
 70
     1
  0
ATTDEF
  8
0
 10
0.0
 20
0.0
 30
0.0
 40
1.0
  1
01
  3
QUANTITY......(2 CHARS): 
  2
DWGQUAN
 70
     1
  0
ATTDEF
  8
0
 10
0.0
 20
0.0
 30
0.0
 40
1.0
  1
 
  3
DESCRIPTION..(31 CHARS): 
  2
DWGDESC
 70
     1
  0
ATTDEF
  8
0
 10
0.0
 20
0.0
 30
0.0
 40
1.0
  1
 
  3
YOUR NAME....(17 CHARS): 
  2
DRWN
 70
     1
  0
ATTDEF
  8
0
 10
0.0
 20
0.0
 30
0.0
 40
1.0
  1
10/14/92
  3
TODAY'S DATE..(8 CHARS): 
  2
DATE
 70
     1
  0
ATTDEF
  8
0
 10
0.0
 20
0.0
 30
0.0
 40
1.0
  1
01 
  3
FILE..........(3 CHARS): 
  2
FILE
 70
     1
  0
ENDBLK
  8
0
  0
ENDSEC
  0
SECTION
  2
ENTITIES
  0
LINE
  8
RIGHTSIDE
 10
669.385215
 20
75.304775
 30
0.0
 11
682.385215
 21
75.304775
 31
0.0
  0
LINE
  8
RIGHTSIDE
 10
414.385215
 20
72.04381
 30
0.0
 11
414.385215
 21
112.597326
 31
0.0
  0
LINE
  8
RIGHTSIDE
 10
414.385215
 20
176.304775
 30
0.0
 11
412.385215
 21
176.304775
 31
0.0
  0
LINE
  8
RIGHTSIDE
 10
413.385215
 20
176.304775
 30
0.0
 11
413.385215
 21
134.912225
 31
0.0
  0
LINE
  8
RIGHTSIDE
 10
412.385215
 20
176.304775
 30
0.0
 11
412.385215
 21
134.912225
 31
0.0
  0
LINE
  8
RIGHTSIDE
 10
439.385222
 20
180.055699
 30
0.0
 11
412.385215
 21
180.055699
 31
0.0
  0
LINE
  8
RIGHTSIDE
 10
439.385222
 20
181.04381
 30
0.0
 11
412.385215
 21
181.04381
 31
0.0
  0
LINE
  8
RIGHTSIDE
  6
DASHED
 10
193.385215
 20
172.804775
 30
0.0
 11
193.385215
 21
74.804634
 31
0.0
  0
LINE
  8
RIGHTSIDE
 10
412.385215
 20
112.597326
 30
0.0
 11
412.385215
 21
72.04381
 31
0.0
  0
LINE
  8
RIGHTSIDE
 10
414.385215
 20
134.912225
 30
0.0
 11
414.385215
 21
176.304775
 31
0.0
  0
LINE
  8
RIGHTSIDE
 10
445.286919
 20
90.934938
 30
0.0
 11
445.286919
 21
65.04381
 31
0.0
  0
LINE
  8
RIGHTSIDE
 10
436.286919
 20
90.934938
 30
0.0
 11
436.286919
 21
65.04381
 31
0.0
  0
LINE
  8
RIGHTSIDE
 10
667.385215
 20
164.063785
 30
0.0
 11
667.385215
 21
72.04381
 31
0.0
  0
LINE
  8
RIGHTSIDE
 10
668.385215
 20
80.150817
 30
0.0
 11
668.385215
 21
72.04381
 31
0.0
  0
LINE
  8
RIGHTSIDE
 10
669.385215
 20
171.93697
 30
0.0
 11
669.385215
 21
72.04381
 31
0.0
  0
LINE
  8
PLANVIEW
  6
DASHED
 10
906.385215
 20
405.712454
 30
0.0
 11
906.385215
 21
311.212454
 31
0.0
  0
LINE
  8
PLANVIEW
 10
417.23334
 20
307.712454
 30
0.0
 11
451.56512
 21
307.712454
 31
0.0
  0
LINE
  8
PLANVIEW
 10
413.385215
 20
409.712454
 30
0.0
 11
413.385215
 21
363.811474
 31
0.0
  0
LINE
  8
PLANVIEW
 10
412.385215
 20
409.712454
 30
0.0
 11
412.385215
 21
315.929267
 31
0.0
  0
LINE
  8
PLANVIEW
  6
DASHED
 10
193.385215
 20
407.712454
 30
0.0
 11
193.385215
 21
309.712454
 31
0.0
  0
LINE
  8
PLANVIEW
 10
414.385215
 20
315.929267
 30
0.0
 11
414.385215
 21
351.641385
 31
0.0
  0
LINE
  8
PLANVIEW
 10
669.385215
 20
409.712454
 30
0.0
 11
412.385215
 21
409.712454
 31
0.0
  0
LINE
  8
PLANVIEW
 10
687.385215
 20
316.212454
 30
0.0
 11
687.385215
 21
358.712454
 31
0.0
  0
LINE
  8
PLANVIEW
 10
669.385215
 20
409.712454
 30
0.0
 11
669.385215
 21
339.289531
 31
0.0
  0
LINE
  8
PLANVIEW
 10
414.385215
 20
365.783522
 30
0.0
 11
414.385215
 21
409.712454
 31
0.0
  0
LINE
  8
PLANVIEW
  6
DASHED
 10
906.385215
 20
311.212454
 30
0.0
 11
727.6547
 21
311.212454
 31
0.0
  0
LINE
  8
RIGHTSIDE
 10
667.885215
 20
65.04381
 30
0.0
 11
413.885215
 21
65.04381
 31
0.0
  0
LINE
  8
RIGHTSIDE
 10
414.385215
 20
72.04381
 30
0.0
 11
412.385215
 21
72.04381
 31
0.0
  0
LINE
  8
RIGHTSIDE
  6
DASHED
 10
193.385215
 20
74.804634
 30
0.0
 11
391.876299
 21
74.804634
 31
0.0
  0
LINE
  8
RIGHTSIDE
 10
668.385215
 20
169.938949
 30
0.0
 11
668.385215
 21
80.150817
 31
0.0
  0
LINE
  8
PLANVIEW
  6
DASHED
 10
906.385215
 20
405.712454
 30
0.0
 11
695.798882
 21
405.712454
 31
0.0
  0
ARC
  8
PLANVIEW
 10
679.496016
 20
358.712454
 30
0.0
 40
2.0
 50
340.630729
 51
157.740821
  0
LINE
  8
PLANVIEW
 10
668.385215
 20
409.712454
 30
0.0
 11
668.385215
 21
336.846322
 31
0.0
  0
LINE
  8
RIGHTSIDE
  6
DASHED
 10
906.385215
 20
172.804775
 30
0.0
 11
906.385215
 21
75.304775
 31
0.0
  0
LINE
  8
RIGHTSIDE
 10
413.385215
 20
72.04381
 30
0.0
 11
413.385215
 21
112.597326
 31
0.0
  0
LINE
  8
PLANVIEW
 10
668.385215
 20
321.077173
 30
0.0
 11
668.385215
 21
307.712454
 31
0.0
  0
LINE
  8
PLANVIEW
 10
667.385215
 20
409.712454
 30
0.0
 11
667.385215
 21
334.403114
 31
0.0
  0
LINE
  8
PLANVIEW
 10
669.385215
 20
323.921695
 30
0.0
 11
669.385215
 21
307.712454
 31
0.0
  0
LINE
  8
RIGHTSIDE
  6
DASHED
 10
391.876299
 20
172.804775
 30
0.0
 11
193.385215
 21
172.804775
 31
0.0
  0
LINE
  8
RIGHTSIDE
 10
407.385215
 20
74.804634
 30
0.0
 11
412.385215
 21
74.804634
 31
0.0
  0
LINE
  8
PLANVIEW
  6
CENTER
 10
705.132224
 20
358.712454
 30
0.0
 11
375.507213
 21
358.712454
 31
0.0
  0
LINE
  8
RIGHTSIDE
  6
CENTER
 10
705.114571
 20
123.804775
 30
0.0
 11
385.142364
 21
123.804775
 31
0.0
  0
CIRCLE
  8
PLANVIEW
 10
403.176742
 20
358.712454
 30
0.0
 40
0.7
  0
LINE
  8
RIGHTSIDE
 10
664.666686
 20
173.804775
 30
0.0
 11
663.901686
 21
173.804775
 31
0.0
  0
LINE
  8
RIGHTSIDE
 10
407.991913
 20
129.562822
 30
0.0
 11
407.991913
 21
112.597326
 31
0.0
  0
LINE
  8
RIGHTSIDE
 10
381.385215
 20
129.562822
 30
0.0
 11
402.385215
 21
129.562822
 31
0.0
  0
LINE
  8
RIGHTSIDE
 10
381.385215
 20
140.682168
 30
0.0
 11
400.703705
 21
140.682168
 31
0.0
  0
LINE
  8
RIGHTSIDE
 10
687.385215
 20
100.855651
 30
0.0
 11
698.802878
 21
100.855651
 31
0.0
  0
LINE
  8
RIGHTSIDE
 10
700.385215
 20
102.438157
 30
0.0
 11
700.385215
 21
97.080762
 31
0.0
  0
LINE
  8
RIGHTSIDE
 10
698.802878
 20
102.438157
 30
0.0
 11
698.802878
 21
97.080762
 31
0.0
  0
LINE
  8
RIGHTSIDE
 10
698.802878
 20
102.438157
 30
0.0
 11
700.385215
 21
102.438157
 31
0.0
  0
LINE
  8
RIGHTSIDE
 10
698.802878
 20
97.080762
 30
0.0
 11
700.385215
 21
97.080762
 31
0.0
  0
LINE
  8
RIGHTSIDE
 10
687.385215
 20
98.663267
 30
0.0
 11
698.802878
 21
98.663267
 31
0.0
  0
LINE
  8
RIGHTSIDE
 10
436.286919
 20
90.934938
 30
0.0
 11
445.286919
 21
90.934938
 31
0.0
  0
LINE
  8
RIGHTSIDE
 10
417.361326
 20
134.912225
 30
0.0
 11
417.361326
 21
112.597326
 31
0.0
  0
LINE
  8
PLANVIEW
 10
381.385215
 20
366.611906
 30
0.0
 11
381.385215
 21
350.813001
 31
0.0
  0
LINE
  8
PLANVIEW
 10
394.984627
 20
402.712454
 30
0.0
 11
394.984627
 21
314.712454
 31
0.0
  0
LINE
  8
PLANVIEW
 10
381.385215
 20
366.611906
 30
0.0
 11
394.984627
 21
366.611906
 31
0.0
  0
LINE
  8
PLANVIEW
 10
412.225318
 20
315.929267
 30
0.0
 11
417.23334
 21
315.929267
 31
0.0
  0
LINE
  8
PLANVIEW
 10
417.23334
 20
315.929267
 30
0.0
 11
417.23334
 21
305.84685
 31
0.0
  0
LINE
  8
PLANVIEW
 10
417.23334
 20
305.84685
 30
0.0
 11
407.267673
 21
305.84685
 31
0.0
  0
ARC
  8
PLANVIEW
 10
224.927984
 20
311.04877
 30
0.0
 40
182.577241
 50
2.923084
 51
15.06845
  0
ARC
  8
PLANVIEW
 10
272.122826
 20
314.971223
 30
0.0
 40
140.105767
 50
0.391792
 51
18.321873
  0
LINE
  8
PLANVIEW
 10
405.126007
 20
358.712454
 30
0.0
 11
405.126007
 21
362.017223
 31
0.0
  0
LINE
  8
PLANVIEW
 10
401.227477
 20
358.513894
 30
0.0
 11
401.227477
 21
362.017223
 31
0.0
  0
LINE
  8
PLANVIEW
 10
401.227477
 20
362.017223
 30
0.0
 11
405.126007
 21
362.017223
 31
0.0
  0
LINE
  8
PLANVIEW
 10
407.267673
 20
305.84685
 30
0.0
 11
407.267673
 21
320.359355
 31
0.0
  0
LINE
  8
PLANVIEW
 10
381.385215
 20
350.813001
 30
0.0
 11
394.984627
 21
350.813001
 31
0.0
  0
LINE
  8
PLANVIEW
  6
DASHED
 10
305.385215
 20
303.203614
 30
0.0
 11
305.385215
 21
302.203614
 31
0.0
  0
LINE
  8
PLANVIEW
  6
DASHED
 10
305.385215
 20
302.203614
 30
0.0
 11
407.385215
 21
302.203614
 31
0.0
  0
LINE
  8
PLANVIEW
  6
DASHED
 10
305.385215
 20
303.203614
 30
0.0
 11
407.385215
 21
303.203614
 31
0.0
  0
LINE
  8
RIGHTSIDE
 10
381.385215
 20
140.682168
 30
0.0
 11
381.385215
 21
129.562822
 31
0.0
  0
LINE
  8
RIGHTSIDE
 10
394.984627
 20
172.804775
 30
0.0
 11
394.984627
 21
148.760802
 31
0.0
  0
LINE
  8
RIGHTSIDE
 10
402.385215
 20
138.306906
 30
0.0
 11
394.984627
 21
148.760802
 31
0.0
  0
LINE
  8
RIGHTSIDE
 10
411.71016
 20
134.912225
 30
0.0
 11
417.361326
 21
134.912225
 31
0.0
  0
LINE
  8
RIGHTSIDE
 10
405.109782
 20
179.22625
 30
0.0
 11
405.109782
 21
172.843063
 31
0.0
  0
ARC
  8
RIGHTSIDE
 10
320.682105
 20
138.085637
 30
0.0
 40
91.083354
 50
358.003369
 51
21.680608
  0
ARC
  8
RIGHTSIDE
 10
302.254786
 20
135.792835
 30
0.0
 40
105.643459
 50
356.725232
 51
19.975255
  0
LINE
  8
RIGHTSIDE
 10
401.362281
 20
179.22625
 30
0.0
 11
405.109782
 21
179.22625
 31
0.0
  0
LINE
  8
RIGHTSIDE
 10
401.362281
 20
172.906993
 30
0.0
 11
401.362281
 21
179.22625
 31
0.0
  0
LINE
  8
RIGHTSIDE
 10
412.385215
 20
172.804775
 30
0.0
 11
405.109782
 21
172.804775
 31
0.0
  0
LINE
  8
RIGHTSIDE
 10
407.991913
 20
112.597326
 30
0.0
 11
417.361326
 21
112.597326
 31
0.0
  0
LINE
  8
RIGHTSIDE
 10
401.362281
 20
179.22625
 30
0.0
 11
402.165045
 21
179.22625
 31
0.0
  0
LINE
  8
RIGHTSIDE
 10
402.165045
 20
179.22625
 30
0.0
 11
404.038161
 21
179.22625
 31
0.0
  0
LINE
  8
RIGHTSIDE
 10
402.466111
 20
179.22625
 30
0.0
 11
402.466111
 21
180.04381
 31
0.0
  0
LINE
  8
RIGHTSIDE
 10
402.466111
 20
180.04381
 30
0.0
 11
403.95731
 21
180.04381
 31
0.0
  0
LINE
  8
RIGHTSIDE
 10
403.95731
 20
180.04381
 30
0.0
 11
403.95731
 21
179.22625
 31
0.0
  0
LINE
  8
RIGHTSIDE
 10
419.734375
 20
122.230015
 30
0.0
 11
419.734375
 21
90.934938
 31
0.0
  0
LINE
  8
RIGHTSIDE
 10
419.734375
 20
90.934938
 30
0.0
 11
449.704236
 21
90.934938
 31
0.0
  0
LINE
  8
RIGHTSIDE
 10
449.704236
 20
90.934938
 30
0.0
 11
449.704236
 21
122.230015
 31
0.0
  0
LINE
  8
RIGHTSIDE
 10
449.704236
 20
122.230015
 30
0.0
 11
419.734375
 21
122.230015
 31
0.0
  0
LINE
  8
RIGHTSIDE
 10
414.385215
 20
72.04381
 30
0.0
 11
436.286919
 21
72.04381
 31
0.0
  0
LINE
  8
RIGHTSIDE
 10
643.233511
 20
97.589523
 30
0.0
 11
634.233511
 21
97.589523
 31
0.0
  0
LINE
  8
RIGHTSIDE
 10
643.233511
 20
97.589523
 30
0.0
 11
643.233511
 21
65.04381
 31
0.0
  0
LINE
  8
RIGHTSIDE
 10
634.233511
 20
97.589523
 30
0.0
 11
634.233511
 21
65.04381
 31
0.0
  0
LINE
  8
RIGHTSIDE
  6
DASHED
 10
697.59614
 20
172.804775
 30
0.0
 11
906.385215
 21
172.804775
 31
0.0
  0
LINE
  8
RIGHTSIDE
  6
DASHED
 10
697.59614
 20
75.304775
 30
0.0
 11
906.385215
 21
75.304775
 31
0.0
  0
CIRCLE
  8
PLANVIEW
  6
DASHED
 10
685.130543
 20
287.131572
 30
0.0
 40
2.0
  0
ARC
  8
RIGHTSIDE
  6
DASHED
 10
669.449046
 20
124.000975
 30
0.0
 40
52.00577
 50
270.677567
 51
68.341391
  0
CIRCLE
  8
RIGHTSIDE
 10
423.952927
 20
58.760091
 30
0.0
 40
3.139684
  0
LINE
  8
RIGHTSIDE
 10
413.885215
 20
53.04381
 30
0.0
 11
667.885215
 21
53.04381
 31
0.0
  0
ARC
  8
RIGHTSIDE
  6
DASHED
 10
357.024689
 20
123.804775
 30
0.0
 40
51.639474
 50
54.037862
 51
305.962138
  0
LINE
  8
FRONTVIEW
 10
112.875681
 20
180.055699
 30
0.0
 11
113.35634
 21
178.708271
 31
0.0
  0
LINE
  8
FRONTVIEW
 10
88.875681
 20
180.055699
 30
0.0
 11
84.872942
 21
168.834811
 31
0.0
  0
LINE
  8
FRONTVIEW
 10
113.554929
 20
143.657231
 30
0.0
 11
113.554929
 21
138.306906
 31
0.0
  0
LINE
  8
FRONTVIEW
 10
119.745594
 20
138.306906
 30
0.0
 11
113.554929
 21
138.306906
 31
0.0
  0
LINE
  8
FRONTVIEW
 10
119.745594
 20
143.657231
 30
0.0
 11
119.745594
 21
138.306906
 31
0.0
  0
LINE
  8
FRONTVIEW
 10
139.169324
 20
143.657231
 30
0.0
 11
119.745594
 21
143.657231
 31
0.0
  0
LINE
  8
FRONTVIEW
 10
139.169324
 20
143.657231
 30
0.0
 11
139.169324
 21
138.306906
 31
0.0
  0
LINE
  8
FRONTVIEW
 10
145.934232
 20
138.306906
 30
0.0
 11
139.169324
 21
138.306906
 31
0.0
  0
LINE
  8
FRONTVIEW
 10
88.196441
 20
143.657231
 30
0.0
 11
113.554929
 21
143.657231
 31
0.0
  0
LINE
  8
FRONTVIEW
 10
82.005776
 20
138.306906
 30
0.0
 11
88.196441
 21
138.306906
 31
0.0
  0
LINE
  8
FRONTVIEW
 10
88.196441
 20
143.657231
 30
0.0
 11
88.196441
 21
138.306906
 31
0.0
  0
LINE
  8
FRONTVIEW
 10
82.005776
 20
143.657231
 30
0.0
 11
82.005776
 21
138.306906
 31
0.0
  0
LINE
  8
FRONTVIEW
 10
62.582046
 20
143.657231
 30
0.0
 11
62.582046
 21
138.306906
 31
0.0
  0
LINE
  8
FRONTVIEW
 10
55.817137
 20
138.306906
 30
0.0
 11
62.582046
 21
138.306906
 31
0.0
  0
LINE
  8
FRONTVIEW
 10
62.582046
 20
143.657231
 30
0.0
 11
82.005776
 21
143.657231
 31
0.0
  0
LINE
  8
FRONTVIEW
 10
61.188463
 20
148.760802
 30
0.0
 11
140.562906
 21
148.760802
 31
0.0
  0
LINE
  8
FRONTVIEW
  6
CONTINUOUS
 10
100.238768
 20
180.04381
 30
0.0
 11
101.512603
 21
180.04381
 31
0.0
  0
LINE
  8
FRONTVIEW
  6
CONTINUOUS
 10
100.238768
 20
180.04381
 30
0.0
 11
100.238768
 21
179.182838
 31
0.0
  0
LINE
  8
FRONTVIEW
  6
CONTINUOUS
 10
101.512603
 20
180.04381
 30
0.0
 11
101.512603
 21
179.182838
 31
0.0
  0
LINE
  8
FRONTVIEW
 10
97.23315
 20
174.879667
 30
0.0
 11
104.518221
 21
174.879667
 31
0.0
  0
LINE
  8
FRONTVIEW
 10
97.23315
 20
179.182838
 30
0.0
 11
97.23315
 21
174.879667
 31
0.0
  0
LINE
  8
FRONTVIEW
  6
CONTINUOUS
 10
97.23315
 20
179.182838
 30
0.0
 11
104.518221
 21
179.182838
 31
0.0
  0
LINE
  8
FRONTVIEW
 10
161.153492
 20
108.905661
 30
0.0
 11
161.153492
 21
106.782665
 31
0.0
  0
LINE
  8
FRONTVIEW
 10
162.375685
 20
140.038211
 30
0.0
 11
162.375685
 21
108.905661
 31
0.0
  0
LINE
  8
FRONTVIEW
 10
148.90305
 20
108.905661
 30
0.0
 11
162.375685
 21
108.905661
 31
0.0
  0
LINE
  8
FRONTVIEW
 10
148.283826
 20
106.782665
 30
0.0
 11
161.153492
 21
106.782665
 31
0.0
  0
LINE
  8
FRONTVIEW
 10
64.875685
 20
65.04381
 30
0.0
 11
57.656228
 21
97.185852
 31
0.0
  0
CIRCLE
  8
FRONTVIEW
 10
100.875685
 20
100.617196
 30
0.0
 40
13.742594
  0
CIRCLE
  8
FRONTVIEW
 10
100.875685
 20
100.617196
 30
0.0
 40
11.930815
  0
LINE
  8
FRONTVIEW
 10
37.102682
 20
53.04381
 30
0.0
 11
61.267891
 21
53.04381
 31
0.0
  0
LINE
  8
FRONTVIEW
 10
129.875685
 20
65.04381
 30
0.0
 11
129.875685
 21
53.04381
 31
0.0
  0
LINE
  8
FRONTVIEW
 10
136.875685
 20
65.04381
 30
0.0
 11
136.875685
 21
53.04381
 31
0.0
  0
LINE
  8
FRONTVIEW
 10
129.875685
 20
65.04381
 30
0.0
 11
136.875685
 21
65.04381
 31
0.0
  0
LINE
  8
FRONTVIEW
 10
71.875685
 20
65.04381
 30
0.0
 11
64.875685
 21
65.04381
 31
0.0
  0
LINE
  8
FRONTVIEW
 10
64.875685
 20
65.04381
 30
0.0
 11
64.875685
 21
53.04381
 31
0.0
  0
LINE
  8
FRONTVIEW
 10
71.875685
 20
65.04381
 30
0.0
 11
71.875685
 21
53.04381
 31
0.0
  0
LINE
  8
FRONTVIEW
 10
123.596554
 20
77.539124
 30
0.0
 11
129.875685
 21
65.04381
 31
0.0
  0
LINE
  8
FRONTVIEW
 10
78.154815
 20
77.539124
 30
0.0
 11
71.875685
 21
65.04381
 31
0.0
  0
LINE
  8
RIGHTSIDE
 10
439.385222
 20
181.04381
 30
0.0
 11
439.385222
 21
180.055699
 31
0.0
  0
LINE
  8
PLANVIEW
 10
413.385215
 20
353.613433
 30
0.0
 11
413.385215
 21
315.929267
 31
0.0
  0
LINE
  8
FRONTVIEW
 10
129.875685
 20
53.04381
 30
0.0
 11
136.875685
 21
53.04381
 31
0.0
  0
LINE
  8
FRONTVIEW
 10
64.875685
 20
53.04381
 30
0.0
 11
71.875685
 21
53.04381
 31
0.0
  0
TEXT
  8
FRONTVIEW
 10
78.064223
 20
37.127901
 30
0.0
 40
5.0
  1
FRONT VIEW
  7
ROMANS
 72
     4
 11
100.802318
 21
39.627901
 31
0.0
  0
TEXT
  8
RIGHTSIDE
 10
510.990497
 20
40.752069
 30
0.0
 40
5.0
  1
RIGHT SIDE
  7
ROMANS
 72
     4
 11
532.300021
 21
43.252069
 31
0.0
  0
POLYLINE
  8
CAPTIONS
 66
     1
 10
0.0
 20
0.0
 30
0.0
 70
     1
 40
0.5
 41
0.5
  0
VERTEX
  8
CAPTIONS
 10
693.425925
 20
203.310788
 30
0.0
 42
1.0
  0
VERTEX
  8
CAPTIONS
 10
693.925925
 20
203.310788
 30
0.0
 42
1.0
  0
SEQEND
  8
CAPTIONS
  0
CIRCLE
  8
CAPTIONS
 10
693.675925
 20
203.310788
 30
0.0
 40
2.799891
  0
TEXT
  8
CAPTIONS
 10
698.593028
 20
186.046946
 30
0.0
 40
4.597
  1
jurisdictional requirements.
  7
ROMANS
  0
TEXT
  8
CAPTIONS
 10
698.593028
 20
193.489708
 30
0.0
 40
4.597
  1
clearance consult local
  7
ROMANS
  0
TEXT
  8
CAPTIONS
 10
698.593028
 20
200.932469
 30
0.0
 40
4.597
  1
For minimum aisle 
  7
ROMANS
  0
TEXT
  8
CAPTIONS
 10
429.214194
 20
485.969179
 30
0.0
 40
5.0
  1
CB 700 HP & 800 HP
  7
ROMAND
  0
ARC
  8
CAPTIONS
 10
473.614398
 20
6.167753
 30
0.0
 40
13.097472
 50
73.493764
 51
74.4082
  0
ARC
  8
CAPTIONS
 10
474.542386
 20
9.299442
 30
0.0
 40
9.831184
 50
54.419527
 51
73.493591
  0
ARC
  8
CAPTIONS
 10
475.961441
 20
11.282981
 30
0.0
 40
7.392302
 50
30.070114
 51
54.419544
  0
ARC
  8
CAPTIONS
 10
478.130656
 20
12.538916
 30
0.0
 40
4.885738
 50
359.999979
 51
30.070151
  0
ARC
  8
CAPTIONS
 10
479.133868
 20
12.205672
 30
0.0
 40
3.896801
 50
329.929866
 51
4.905749
  0
ARC
  8
CAPTIONS
 10
475.659046
 20
14.217532
 30
0.0
 40
7.912018
 50
305.580464
 51
329.929893
  0
ARC
  8
CAPTIONS
 10
474.542386
 20
15.778386
 30
0.0
 40
9.831184
 50
286.506409
 51
305.580473
  0
ARC
  8
CAPTIONS
 10
473.614411
 20
18.906541
 30
0.0
 40
13.097364
 50
270.000045
 51
286.506319
  0
ARC
  8
CAPTIONS
 10
471.267426
 20
13.794873
 30
0.0
 40
7.392338
 50
210.070176
 51
227.741303
  0
ARC
  8
CAPTIONS
 10
469.098183
 20
12.538912
 30
0.0
 40
4.885736
 50
179.999984
 51
210.070156
  0
ARC
  8
CAPTIONS
 10
469.098185
 20
12.538916
 30
0.0
 40
4.885738
 50
149.929849
 51
180.000021
  0
ARC
  8
CAPTIONS
 10
471.2674
 20
11.282979
 30
0.0
 40
7.392304
 50
125.580444
 51
149.929874
  0
ARC
  8
CAPTIONS
 10
472.686455
 20
9.299442
 30
0.0
 40
9.831184
 50
106.506409
 51
125.580473
  0
ARC
  8
CAPTIONS
 10
473.614439
 20
6.167832
 30
0.0
 40
13.097395
 50
94.417361
 51
106.506318
  0
ARC
  8
CAPTIONS
 10
473.61443
 20
18.906541
 30
0.0
 40
13.097364
 50
253.493681
 51
269.999955
  0
ARC
  8
CAPTIONS
 10
472.686412
 20
15.77487
 30
0.0
 40
9.831085
 50
251.627947
 51
253.493685
  0
ARC
  8
CAPTIONS
 10
474.247419
 20
23.545419
 30
0.0
 40
0.723632
 50
26.058138
 51
90.000027
  0
ARC
  8
CAPTIONS
 10
463.62177
 20
18.349559
 30
0.0
 40
12.551623
 50
19.796937
 51
26.058266
  0
ARC
  8
CAPTIONS
 10
506.453621
 20
13.97845
 30
0.0
 40
34.57041
 50
168.549831
 51
171.020329
  0
ARC
  8
CAPTIONS
 10
484.873262
 20
18.349486
 30
0.0
 40
12.551829
 50
153.941824
 51
168.549851
  0
ARC
  8
CAPTIONS
 10
474.247418
 20
23.545418
 30
0.0
 40
0.723632
 50
89.999937
 51
153.941826
  0
ARC
  8
CAPTIONS
 10
446.514904
 20
10.243388
 30
0.0
 40
30.005881
 50
348.549808
 51
352.045725
  0
ARC
  8
CAPTIONS
 10
463.62158
 20
6.778475
 30
0.0
 40
12.551828
 50
333.941804
 51
348.54983
  0
ARC
  8
CAPTIONS
 10
474.247419
 20
1.582538
 30
0.0
 40
0.723632
 50
270.00003
 51
333.941919
  0
ARC
  8
CAPTIONS
 10
474.247419
 20
1.582539
 30
0.0
 40
0.723632
 50
206.058117
 51
270.000006
  0
ARC
  8
CAPTIONS
 10
484.873259
 20
6.778471
 30
0.0
 40
12.551827
 50
191.450154
 51
206.058181
  0
ARC
  8
CAPTIONS
 10
501.981541
 20
10.243656
 30
0.0
 40
30.007509
 50
188.358819
 51
191.450083
  0
ARC
  8
CAPTIONS
 10
446.589869
 20
-30.314169
 30
0.0
 40
52.738673
 50
47.178359
 51
48.173695
  0
ARC
  8
CAPTIONS
 10
469.816459
 20
-5.250729
 30
0.0
 40
18.567771
 50
35.590662
 51
47.17836
  0
ARC
  8
CAPTIONS
 10
484.444481
 20
5.214874
 30
0.0
 40
0.579453
 50
325.888644
 51
35.590677
  0
ARC
  8
CAPTIONS
 10
495.777278
 20
50.243774
 30
0.0
 40
45.643056
 50
227.178319
 51
228.469064
  0
ARC
  8
CAPTIONS
 10
477.373681
 20
30.3848
 30
0.0
 40
18.567768
 50
215.590671
 51
227.178369
  0
ARC
  8
CAPTIONS
 10
462.745663
 20
19.91577
 30
0.0
 40
0.579453
 50
145.888644
 51
215.590677
  0
ARC
  8
CAPTIONS
 10
462.745664
 20
19.91577
 30
0.0
 40
0.579454
 50
76.186623
 51
145.888656
  0
ARC
  8
CAPTIONS
 10
458.450778
 20
2.447705
 30
0.0
 40
18.567765
 50
64.598944
 51
76.186642
  0
ARC
  8
CAPTIONS
 10
446.837534
 20
-22.008714
 30
0.0
 40
45.64144
 50
61.736217
 51
64.599024
  0
ARC
  8
CAPTIONS
 10
484.444481
 20
5.214874
 30
0.0
 40
0.579454
 50
256.186623
 51
325.888656
  0
ARC
  8
CAPTIONS
 10
488.739367
 20
22.682939
 30
0.0
 40
18.567765
 50
244.598944
 51
256.186642
  0
ARC
  8
CAPTIONS
 10
500.353502
 20
47.144535
 30
0.0
 40
45.643404
 50
241.807185
 51
244.598955
  0
ARC
  8
CAPTIONS
 10
462.818309
 20
5.178251
 30
0.0
 40
0.510671
 50
142.874757
 51
214.376124
  0
ARC
  8
CAPTIONS
 10
478.674398
 20
-6.821199
 30
0.0
 40
20.397466
 50
132.266064
 51
142.874701
  0
ARC
  8
CAPTIONS
 10
498.863688
 20
-29.035402
 30
0.0
 40
50.415431
 50
131.286278
 51
132.26603
  0
ARC
  8
CAPTIONS
 10
440.477045
 20
58.228002
 30
0.0
 40
58.293083
 50
296.485995
 51
298.153044
  0
ARC
  8
CAPTIONS
 10
457.377698
 20
24.306355
 30
0.0
 40
20.397466
 50
285.877352
 51
296.485989
  0
ARC
  8
CAPTIONS
 10
462.818309
 20
5.17825
 30
0.0
 40
0.51067
 50
214.375979
 51
285.877346
  0
ARC
  8
CAPTIONS
 10
503.46344
 20
-25.893361
 30
0.0
 40
50.419304
 50
116.486045
 51
119.066308
  0
ARC
  8
CAPTIONS
 10
490.074293
 20
0.977468
 30
0.0
 40
20.397468
 50
105.877365
 51
116.486002
  0
ARC
  8
CAPTIONS
 10
484.633678
 20
20.105573
 30
0.0
 40
0.510671
 50
34.376009
 51
105.877376
  0
ARC
  8
CAPTIONS
 10
484.633678
 20
20.105573
 30
0.0
 40
0.510671
 50
322.87467
 51
34.376037
  0
ARC
  8
CAPTIONS
 10
468.777588
 20
32.108448
 30
0.0
 40
20.397466
 50
312.266064
 51
322.874701
  0
ARC
  8
CAPTIONS
 10
448.584314
 20
54.327035
 30
0.0
 40
50.421355
 50
310.99866
 51
312.26603
  0
ARC
  8
CAPTIONS
 10
458.454948
 20
12.605549
 30
0.0
 40
0.556231
 50
107.770486
 51
179.999953
  0
ARC
  8
CAPTIONS
 10
465.736094
 20
-10.112786
 30
0.0
 40
24.41284
 50
97.562078
 51
107.770471
  0
ARC
  8
CAPTIONS
 10
470.479087
 20
-45.840428
 30
0.0
 40
60.453934
 50
95.609002
 51
97.562053
  0
ARC
  8
CAPTIONS
 10
471.724282
 20
80.431061
 30
0.0
 40
69.915761
 50
262.437931
 51
263.989935
  0
ARC
  8
CAPTIONS
 10
465.736094
 20
35.323884
 30
0.0
 40
24.41284
 50
252.229529
 51
262.437922
  0
ARC
  8
CAPTIONS
 10
458.454949
 20
12.60555
 30
0.0
 40
0.556232
 50
180.000001
 51
252.229468
  0
ARC
  8
CAPTIONS
 10
476.897398
 20
-45.840088
 30
0.0
 40
60.453592
 50
82.437943
 51
84.316515
  0
ARC
  8
CAPTIONS
 10
481.64035
 20
-10.112781
 30
0.0
 40
24.412836
 50
72.229526
 51
82.437919
  0
ARC
  8
CAPTIONS
 10
488.921495
 20
12.605549
 30
0.0
 40
0.556231
 50
0.000047
 51
72.229514
  0
ARC
  8
CAPTIONS
 10
488.921495
 20
12.60555
 30
0.0
 40
0.556232
 50
287.770532
 51
359.999999
  0
ARC
  8
CAPTIONS
 10
481.64035
 20
35.32388
 30
0.0
 40
24.412836
 50
277.562081
 51
287.770474
  0
ARC
  8
CAPTIONS
 10
476.89744
 20
71.050968
 30
0.0
 40
60.45337
 50
275.76689
 51
277.562045
  0
TEXT
  8
CAPTIONS
 10
365.357153
 20
499.426259
 30
0.0
 40
9.0
  1
Cleaver-Brooks Layout Guide
  7
ROMAND
  0
LINE
  8
CAPTIONS
 10
473.001578
 20
6.695798
 30
0.0
 11
472.796941
 21
5.843836
 31
0.0
  0
LINE
  8
CAPTIONS
 10
474.958978
 20
7.543712
 30
0.0
 11
474.620882
 21
5.787475
 31
0.0
  0
LINE
  8
CAPTIONS
 10
470.554827
 20
6.531384
 30
0.0
 11
470.492546
 21
6.187609
 31
0.0
  0
LINE
  8
CAPTIONS
 10
473.277393
 20
6.796377
 30
0.0
 11
470.554827
 21
6.53481
 31
0.0
  0
LINE
  8
CAPTIONS
 10
474.85221
 20
7.543712
 30
0.0
 11
473.277393
 21
6.796377
 31
0.0
  0
LINE
  8
CAPTIONS
 10
476.506772
 20
8.500301
 30
0.0
 11
474.85221
 21
7.543712
 31
0.0
  0
LINE
  8
CAPTIONS
 10
476.506772
 20
8.500301
 30
0.0
 11
481.169274
 21
8.500301
 31
0.0
  0
LINE
  8
CAPTIONS
 10
473.038192
 20
12.491445
 30
0.0
 11
464.228867
 21
12.491445
 31
0.0
  0
LINE
  8
CAPTIONS
 10
472.846159
 20
10.684829
 30
0.0
 11
464.57586
 21
10.684829
 31
0.0
  0
LINE
  8
CAPTIONS
 10
466.817973
 20
10.6601
 30
0.0
 11
467.387399
 21
8.642294
 31
0.0
  0
LINE
  8
CAPTIONS
 10
466.444288
 20
12.491071
 30
0.0
 11
466.817973
 21
10.6601
 31
0.0
  0
LINE
  8
CAPTIONS
 10
466.889152
 20
14.426668
 30
0.0
 11
466.444288
 21
12.491071
 31
0.0
  0
LINE
  8
CAPTIONS
 10
467.894543
 20
16.870454
 30
0.0
 11
466.889152
 21
14.426668
 31
0.0
  0
LINE
  8
CAPTIONS
 10
470.668135
 20
18.929535
 30
0.0
 11
467.894543
 21
16.870454
 31
0.0
  0
LINE
  8
CAPTIONS
 10
469.095675
 20
10.6601
 30
0.0
 11
469.56723
 21
9.225216
 31
0.0
  0
LINE
  8
CAPTIONS
 10
468.846552
 20
12.491071
 30
0.0
 11
469.095675
 21
10.6601
 31
0.0
  0
LINE
  8
CAPTIONS
 10
469.131264
 20
14.426668
 30
0.0
 11
468.846552
 21
12.491071
 31
0.0
  0
LINE
  8
CAPTIONS
 10
469.665101
 20
16.870454
 30
0.0
 11
469.131264
 21
14.426668
 31
0.0
  0
LINE
  8
CAPTIONS
 10
471.30834
 20
19.060608
 30
0.0
 11
469.665101
 21
16.870454
 31
0.0
  0
LINE
  8
CAPTIONS
 10
471.311096
 20
12.491071
 30
0.0
 11
471.622501
 21
9.920238
 31
0.0
  0
LINE
  8
CAPTIONS
 10
471.740228
 20
16.644668
 30
0.0
 11
471.311096
 21
12.491071
 31
0.0
  0
LINE
  8
CAPTIONS
 10
472.761363
 20
14.426671
 30
0.0
 11
464.61145
 21
14.426671
 31
0.0
  0
LINE
  8
CAPTIONS
 10
471.634965
 20
16.879288
 30
0.0
 11
466.437547
 21
16.879288
 31
0.0
  0
LINE
  8
CAPTIONS
 10
478.464503
 20
10.540526
 30
0.0
 11
482.646222
 21
10.540526
 31
0.0
  0
LINE
  8
CAPTIONS
 10
476.604973
 20
9.344789
 30
0.0
 11
478.464503
 21
10.540526
 31
0.0
  0
LINE
  8
CAPTIONS
 10
476.231288
 20
6.131249
 30
0.0
 11
476.604973
 21
9.344789
 31
0.0
  0
LINE
  8
CAPTIONS
 10
476.177051
 20
12.811007
 30
0.0
 11
478.7107
 21
12.467808
 31
0.0
  0
LINE
  8
CAPTIONS
 10
477.948461
 20
8.522721
 30
0.0
 11
477.361241
 21
6.347977
 31
0.0
  0
LINE
  8
CAPTIONS
 10
480.282474
 20
8.568404
 30
0.0
 11
479.834683
 21
7.491399
 31
0.0
  0
LINE
  8
CAPTIONS
 10
480.816311
 20
10.698308
 30
0.0
 11
480.282474
 21
8.568404
 31
0.0
  0
LINE
  8
CAPTIONS
 10
481.047639
 20
12.536753
 30
0.0
 11
480.816311
 21
10.698308
 31
0.0
  0
LINE
  8
CAPTIONS
 10
480.131314
 20
16.769478
 30
0.0
 11
479.861375
 21
17.520635
 31
0.0
  0
LINE
  8
CAPTIONS
 10
480.131314
 20
16.769478
 30
0.0
 11
480.751103
 21
14.374355
 31
0.0
  0
LINE
  8
CAPTIONS
 10
478.731422
 20
12.46865
 30
0.0
 11
483.002113
 21
12.46865
 31
0.0
  0
LINE
  8
CAPTIONS
 10
477.29896
 20
16.803194
 30
0.0
 11
480.822281
 21
16.803194
 31
0.0
  0
LINE
  8
CAPTIONS
 10
478.59017
 20
14.41949
 30
0.0
 11
478.7107
 21
12.467808
 31
0.0
  0
LINE
  8
CAPTIONS
 10
477.970383
 20
16.814613
 30
0.0
 11
478.59017
 21
14.41949
 31
0.0
  0
LINE
  8
CAPTIONS
 10
478.482298
 20
10.652626
 30
0.0
 11
477.948461
 21
8.522721
 31
0.0
  0
LINE
  8
CAPTIONS
 10
478.713627
 20
12.491071
 30
0.0
 11
478.482298
 21
10.652626
 31
0.0
  0
LINE
  8
CAPTIONS
 10
480.751103
 20
14.374355
 30
0.0
 11
481.044713
 21
12.513491
 31
0.0
  0
LINE
  8
CAPTIONS
 10
477.975154
 20
16.803194
 30
0.0
 11
477.147707
 21
18.783631
 31
0.0
  0
LINE
  8
CAPTIONS
 10
482.639679
 20
14.420177
 30
0.0
 11
476.854097
 21
14.419195
 31
0.0
  0
LINE
  8
CAPTIONS
 10
473.472213
 20
20.066821
 30
0.0
 11
473.768881
 21
17.601764
 31
0.0
  0
LINE
  8
CAPTIONS
 10
475.37379
 20
20.960936
 30
0.0
 11
475.635632
 21
19.308223
 31
0.0
  0
LINE
  8
CAPTIONS
 10
474.680813
 20
18.945432
 30
0.0
 11
474.507004
 21
16.46502
 31
0.0
  0
LINE
  8
CAPTIONS
 10
474.897509
 20
17.343779
 30
0.0
 11
474.680813
 21
18.945432
 31
0.0
  0
LINE
  8
CAPTIONS
 10
474.940397
 20
19.308223
 30
0.0
 11
474.897509
 21
17.343779
 31
0.0
  0
LINE
  8
CAPTIONS
 10
475.199981
 20
18.12042
 30
0.0
 11
474.940397
 21
19.308223
 31
0.0
  0
ARC
  8
CAPTIONS
 10
480.121611
 20
19.309437
 30
0.0
 40
5.063221
 50
160.56057
 51
193.581845
  0
LINE
  8
CAPTIONS
 10
474.604066
 20
19.688482
 30
0.0
 11
474.887029
 21
23.98496
 31
0.0
  0
LINE
  8
CAPTIONS
 10
474.392206
 20
23.732734
 30
0.0
 11
474.604066
 21
19.688482
 31
0.0
  0
LINE
  8
CAPTIONS
 10
474.178895
 20
20.825226
 30
0.0
 11
474.392206
 21
23.732734
 31
0.0
  0
LINE
  8
CAPTIONS
 10
473.578143
 20
22.848216
 30
0.0
 11
474.178895
 21
20.825226
 31
0.0
  0
LINE
  8
CAPTIONS
 10
473.472213
 20
20.066821
 30
0.0
 11
473.578143
 21
22.848216
 31
0.0
  0
LINE
  8
CAPTIONS
 10
473.330006
 20
21.583631
 30
0.0
 11
473.472213
 21
20.066821
 31
0.0
  0
LINE
  8
CAPTIONS
 10
473.118146
 20
19.603831
 30
0.0
 11
473.330006
 21
21.583631
 31
0.0
  0
LINE
  8
CAPTIONS
 10
472.975939
 20
21.077452
 30
0.0
 11
473.118146
 21
19.603831
 31
0.0
  0
LINE
  8
CAPTIONS
 10
472.603009
 20
19.282502
 30
0.0
 11
472.975939
 21
21.077452
 31
0.0
  0
ARC
  8
CAPTIONS
 10
480.518915
 20
23.320677
 30
0.0
 40
5.670927
 50
173.273027
 51
204.21668
  0
ARC
  8
CAPTIONS
 10
477.116507
 20
21.632057
 30
0.0
 40
1.880825
 50
118.145776
 51
199.813636
  0
LINE
  8
CAPTIONS
 10
470.033123
 20
7.448615
 30
0.0
 11
470.014259
 21
7.849412
 31
0.0
  0
LINE
  8
CAPTIONS
 10
470.443782
 20
6.913068
 30
0.0
 11
470.218863
 21
7.491805
 31
0.0
  0
LINE
  8
CAPTIONS
 10
469.845932
 20
9.285028
 30
0.0
 11
466.329933
 21
8.383233
 31
0.0
  0
LINE
  8
CAPTIONS
 10
472.447742
 20
17.124761
 30
0.0
 11
472.603009
 21
19.282502
 31
0.0
  0
LINE
  8
CAPTIONS
 10
472.241687
 20
18.790143
 30
0.0
 11
472.447742
 21
17.124761
 31
0.0
  0
LINE
  8
CAPTIONS
 10
471.98194
 20
16.817253
 30
0.0
 11
472.241687
 21
18.790143
 31
0.0
  0
LINE
  8
CAPTIONS
 10
471.826674
 20
17.803698
 30
0.0
 11
471.98194
 21
16.817253
 31
0.0
  0
LINE
  8
CAPTIONS
 10
471.620618
 20
16.817253
 30
0.0
 11
471.826674
 21
17.803698
 31
0.0
  0
ARC
  8
CAPTIONS
 10
478.092068
 20
22.165683
 30
0.0
 40
2.176029
 50
148.875368
 51
216.031052
  0
ARC
  8
CAPTIONS
 10
465.414414
 20
12.388296
 30
0.0
 40
7.624476
 50
344.447646
 51
35.512937
  0
ARC
  8
CAPTIONS
 10
469.12845
 20
16.985378
 30
0.0
 40
8.191957
 50
329.36484
 51
28.431967
  0
LINE
  8
CAPTIONS
 10
471.360873
 20
9.886223
 30
0.0
 11
469.845932
 21
9.285028
 31
0.0
  0
LINE
  8
CAPTIONS
 10
472.292474
 20
10.117718
 30
0.0
 11
471.360873
 21
9.886223
 31
0.0
  0
ARC
  8
CAPTIONS
 10
472.516394
 20
9.81149
 30
0.0
 40
0.379362
 50
295.777135
 51
126.174908
  0
LINE
  8
CAPTIONS
 10
470.816713
 20
9.008615
 30
0.0
 11
472.681367
 21
9.469878
 31
0.0
  0
ARC
  8
CAPTIONS
 10
472.207632
 20
12.80135
 30
0.0
 40
4.039739
 50
249.86037
 51
306.718536
  0
LINE
  8
CAPTIONS
 10
474.312396
 20
11.643166
 30
0.0
 11
474.62293
 21
9.563167
 31
0.0
  0
LINE
  8
CAPTIONS
 10
474.66211
 20
11.828017
 30
0.0
 11
474.312396
 21
11.643166
 31
0.0
  0
LINE
  8
CAPTIONS
 10
474.972643
 20
11.689811
 30
0.0
 11
474.66211
 21
11.828017
 31
0.0
  0
LINE
  8
CAPTIONS
 10
475.243997
 20
11.088615
 30
0.0
 11
475.554532
 21
8.961971
 31
0.0
  0
LINE
  8
CAPTIONS
 10
474.972643
 20
11.734728
 30
0.0
 11
475.243997
 21
11.088615
 31
0.0
  0
LINE
  8
CAPTIONS
 10
475.12791
 20
11.919579
 30
0.0
 11
474.972643
 21
11.734728
 31
0.0
  0
LINE
  8
CAPTIONS
 10
475.399265
 20
12.012867
 30
0.0
 11
475.12791
 21
11.919579
 31
0.0
  0
LINE
  8
CAPTIONS
 10
475.632891
 20
11.781373
 30
0.0
 11
475.399265
 21
12.012867
 31
0.0
  0
LINE
  8
CAPTIONS
 10
476.098691
 20
9.516522
 30
0.0
 11
475.632891
 21
11.781373
 31
0.0
  0
LINE
  8
CAPTIONS
 10
476.020333
 20
12.197718
 30
0.0
 11
476.68058
 21
12.520774
 31
0.0
  0
LINE
  8
CAPTIONS
 10
475.904245
 20
11.50496
 30
0.0
 11
476.020333
 21
12.197718
 31
0.0
  0
LINE
  8
CAPTIONS
 10
476.098691
 20
9.516522
 30
0.0
 11
475.904245
 21
11.50496
 31
0.0
  0
LINE
  8
CAPTIONS
 10
477.030293
 20
10.440774
 30
0.0
 11
476.68058
 21
12.520774
 31
0.0
  0
ARC
  8
CAPTIONS
 10
477.33689
 20
11.784934
 30
0.0
 40
0.56983
 50
319.077108
 51
161.449207
  0
ARC
  8
CAPTIONS
 10
469.679919
 20
16.361797
 30
0.0
 40
9.482187
 50
274.559046
 51
328.530496
  0
LINE
  8
CAPTIONS
 10
469.596344
 20
6.510543
 30
0.0
 11
470.433624
 21
6.909612
 31
0.0
  0
TEXT
  8
CAPTIONS
 10
406.369895
 20
5.610623
 30
0.0
 40
2.7648
  1
DIV., AQUA-CHEM INC.
  7
ROMANS
  0
TEXT
  8
CAPTIONS
 10
493.295452
 20
5.531303
 30
0.0
 40
2.7648
  1
MILWAUKEE,WISCONSIN
  7
ROMANS
  0
TEXT
  8
CAPTIONS
 10
495.632669
 20
11.494644
 30
0.0
 40
8.2944
  1
Brooks
  7
ROMANT
  0
TEXT
  8
CAPTIONS
 10
407.101751
 20
11.415324
 30
0.0
 40
8.2944
  1
Cleaver
  7
ROMANT
  0
TEXT
  8
CAPTIONS
 10
805.652912
 20
437.687
 30
0.0
 40
5.0
  1
REAR TUBE CLEARANCE
  7
ROMAND
  0
TEXT
  8
CAPTIONS
 10
342.669534
 20
417.757256
 30
0.0
 40
5.0
  1
FRONT DOOR SWING
  7
ROMAND
  0
TEXT
  8
CAPTIONS
 10
656.294521
 20
417.016834
 30
0.0
 40
5.0
  1
REAR DOOR SWING
  7
ROMAND
  0
TEXT
  8
CAPTIONS
 10
213.754394
 20
438.08031
 30
0.0
 40
5.0
  1
FRONT TUBE CLEARANCE
  7
ROMAND
 72
     4
 11
261.254394
 21
440.58031
 31
0.0
  0
LINE
  8
CAPTIONS
  6
CONTINUOUS
 10
200.075441
 20
440.389931
 30
0.0
 11
207.407335
 21
440.389931
 31
0.0
  0
LINE
  8
CAPTIONS
  6
CONTINUOUS
 10
353.126263
 20
392.777891
 30
0.0
 11
332.598148
 21
419.831206
 31
0.0
  0
LINE
  8
CAPTIONS
  6
CONTINUOUS
 10
332.598148
 20
419.831206
 30
0.0
 11
339.508229
 21
419.831206
 31
0.0
  0
LINE
  8
CAPTIONS
  6
CONTINUOUS
 10
713.693496
 20
384.595514
 30
0.0
 11
740.447823
 21
419.854145
 31
0.0
  0
SOLID
  8
CAPTIONS
  6
CONTINUOUS
 10
716.052036
 20
389.082354
 30
0.0
 11
717.379739
 21
388.07489
 31
0.0
 12
713.693496
 22
384.595514
 32
0.0
 13
713.693496
 23
384.595514
 33
0.0
  0
LINE
  8
CAPTIONS
  6
CONTINUOUS
 10
740.447823
 20
419.854145
 30
0.0
 11
732.854013
 21
419.854145
 31
0.0
  0
LINE
  8
CAPTIONS
  6
CONTINUOUS
 10
886.861045
 20
409.695562
 30
0.0
 11
910.152
 21
440.389931
 31
0.0
  0
SOLID
  8
CAPTIONS
  6
CONTINUOUS
 10
886.197194
 20
410.199294
 30
0.0
 11
887.524896
 21
409.19183
 31
0.0
 12
883.838654
 22
405.712454
 32
0.0
 13
883.838654
 23
405.712454
 33
0.0
  0
LINE
  8
CAPTIONS
  6
CONTINUOUS
 10
910.152
 20
440.389931
 30
0.0
 11
900.165468
 21
440.389931
 31
0.0
  0
INSERT
  8
0
 66
     1
  2
GETDAT
 10
0.0
 20
-269.951032
 30
0.0
  0
ATTRIB
  8
0
 10
0.0
 20
-269.951032
 30
0.0
 40
1.0
  1
96" DIM.DIAG.PROTOTYPE
  2
DWGNAM
 70
     1
  0
ATTRIB
  8
0
 10
0.0
 20
-269.951032
 30
0.0
 40
1.0
  1
B
  2
DWGSIZ
 70
     1
  0
ATTRIB
  8
0
 10
0.0
 20
-269.951032
 30
0.0
 40
1.0
  1
00
  2
DWGREV
 70
     1
  0
ATTRIB
  8
0
 10
0.0
 20
-269.951032
 30
0.0
 40
1.0
  1
01
  2
DWGSHT
 70
     1
  0
ATTRIB
  8
0
 10
0.0
 20
-269.951032
 30
0.0
 40
1.0
  1
01
  2
DWGOF
 70
     1
  0
ATTRIB
  8
0
 10
0.0
 20
-269.951032
 30
0.0
 40
1.0
  1
 
  2
DWGDIST
 70
     1
  0
ATTRIB
  8
0
 10
0.0
 20
-269.951032
 30
0.0
 40
1.0
  1
01
  2
DWGQUAN
 70
     1
  0
ATTRIB
  8
0
 10
0.0
 20
-269.951032
 30
0.0
 40
1.0
  1
96" DIM. DIAG. PROTOTYPE 
  2
DWGDESC
 70
     1
  0
ATTRIB
  8
0
 10
0.0
 20
-269.951032
 30
0.0
 40
1.0
  1
D. KLEIST 
  2
DRWN
 70
     1
  0
ATTRIB
  8
0
 10
0.0
 20
-269.951032
 30
0.0
 40
1.0
  1
10/14/92
  2
DATE
 70
     1
  0
ATTRIB
  8
0
 10
0.0
 20
-269.951032
 30
0.0
 40
1.0
  1
01 
  2
FILE
 70
     1
  0
SEQEND
  8
0
  0
TEXT
  8
CAPTIONS
 10
442.043692
 20
477.044236
 30
0.0
 40
5.0
  1
SCALE - 1"=1"
  7
ROMAND
  0
LINE
  8
CAPTIONS
  6
DASHED
 10
193.385215
 20
220.008834
 30
0.0
 11
721.385215
 21
220.008834
 31
0.0
  0
LINE
  8
CAPTIONS
  6
DASHED
 10
721.385215
 20
268.208091
 30
0.0
 11
721.385215
 21
220.008834
 31
0.0
  0
LINE
  8
CAPTIONS
  6
DASHED
 10
906.385215
 20
268.208091
 30
0.0
 11
906.385215
 21
232.437127
 31
0.0
  0
LINE
  8
CAPTIONS
  6
DASHED
 10
906.385215
 20
232.437127
 30
0.0
 11
305.385215
 21
232.437127
 31
0.0
  0
LINE
  8
CAPTIONS
  6
DASHED
 10
193.385215
 20
268.208091
 30
0.0
 11
193.385215
 21
220.008834
 31
0.0
  0
LINE
  8
CAPTIONS
  6
DASHED
 10
305.385215
 20
268.208091
 30
0.0
 11
305.385215
 21
232.437127
 31
0.0
  0
TEXT
  8
CAPTIONS
  6
CONTINUOUS
 10
317.922953
 20
233.995414
 30
0.0
 40
5.0
  1
Distance required for tube removal from rear
  7
ROMANS
  0
TEXT
  8
CAPTIONS
  6
CONTINUOUS
 10
208.758385
 20
221.567121
 30
0.0
 40
5.0
  1
Distance required for tube removal from front
  7
ROMANS
  0
SOLID
  8
CAPTIONS
  6
CONTINUOUS
 10
350.767723
 20
397.264731
 30
0.0
 11
349.44002
 21
396.257267
 31
0.0
 12
353.126263
 22
392.777891
 32
0.0
 13
353.126263
 23
392.777891
 33
0.0
  0
POLYLINE
  8
FRONTVIEW
  6
CONTINUOUS
 66
     1
 10
0.0
 20
0.0
 30
0.0
 70
     1
 40
0.087756
 41
0.087756
  0
VERTEX
  8
FRONTVIEW
  6
CONTINUOUS
 10
144.000765
 20
128.894569
 30
0.0
  0
VERTEX
  8
FRONTVIEW
  6
CONTINUOUS
 10
144.000765
 20
132.116266
 30
0.0
 42
0.414214
  0
VERTEX
  8
FRONTVIEW
  6
CONTINUOUS
 10
143.123206
 20
132.993825
 30
0.0
  0
VERTEX
  8
FRONTVIEW
  6
CONTINUOUS
 10
119.585208
 20
132.993825
 30
0.0
 42
0.414214
  0
VERTEX
  8
FRONTVIEW
  6
CONTINUOUS
 10
118.70765
 20
132.116266
 30
0.0
  0
VERTEX
  8
FRONTVIEW
  6
CONTINUOUS
 10
118.70765
 20
128.894569
 30
0.0
 42
0.414214
  0
VERTEX
  8
FRONTVIEW
  6
CONTINUOUS
 10
119.585208
 20
128.01701
 30
0.0
  0
VERTEX
  8
FRONTVIEW
  6
CONTINUOUS
 10
143.123206
 20
128.01701
 30
0.0
 42
0.414214
  0
SEQEND
  8
FRONTVIEW
  6
CONTINUOUS
  0
ARC
  8
FRONTVIEW
 10
131.206652
 20
129.367802
 30
0.0
 40
2.29876
 50
73.493764
 51
74.4082
  0
ARC
  8
FRONTVIEW
 10
131.369525
 20
129.91745
 30
0.0
 40
1.725488
 50
54.419527
 51
73.493591
  0
ARC
  8
FRONTVIEW
 10
131.618586
 20
130.265584
 30
0.0
 40
1.297436
 50
30.070114
 51
54.419544
  0
ARC
  8
FRONTVIEW
 10
131.999308
 20
130.486016
 30
0.0
 40
0.857504
 50
359.999979
 51
30.070151
  0
ARC
  8
FRONTVIEW
 10
132.175384
 20
130.427527
 30
0.0
 40
0.683934
 50
329.929866
 51
4.905749
  0
ARC
  8
FRONTVIEW
 10
131.565512
 20
130.780632
 30
0.0
 40
1.388652
 50
305.580464
 51
329.929893
  0
ARC
  8
FRONTVIEW
 10
131.369525
 20
131.054581
 30
0.0
 40
1.725488
 50
286.506409
 51
305.580473
  0
ARC
  8
FRONTVIEW
 10
131.206655
 20
131.603608
 30
0.0
 40
2.298741
 50
270.000045
 51
286.506319
  0
ARC
  8
FRONTVIEW
 10
130.794731
 20
130.706451
 30
0.0
 40
1.297442
 50
210.070176
 51
227.284945
  0
ARC
  8
FRONTVIEW
 10
130.414004
 20
130.486015
 30
0.0
 40
0.857504
 50
179.999984
 51
210.070156
  0
ARC
  8
FRONTVIEW
 10
130.414004
 20
130.486016
 30
0.0
 40
0.857504
 50
149.929849
 51
180.000021
  0
ARC
  8
FRONTVIEW
 10
130.794727
 20
130.265584
 30
0.0
 40
1.297436
 50
125.580444
 51
149.929874
  0
ARC
  8
FRONTVIEW
 10
131.043787
 20
129.91745
 30
0.0
 40
1.725488
 50
106.506409
 51
125.580473
  0
ARC
  8
FRONTVIEW
 10
131.20666
 20
129.367816
 30
0.0
 40
2.298746
 50
94.446912
 51
106.506318
  0
ARC
  8
FRONTVIEW
 10
131.206658
 20
131.603608
 30
0.0
 40
2.298741
 50
253.493681
 51
269.999955
  0
ARC
  8
FRONTVIEW
 10
131.04378
 20
131.053964
 30
0.0
 40
1.725471
 50
243.334254
 51
253.493685
  0
ARC
  8
FRONTVIEW
 10
131.317755
 20
132.417786
 30
0.0
 40
0.127006
 50
26.058138
 51
90.000027
  0
ARC
  8
FRONTVIEW
 10
129.452829
 20
131.505852
 30
0.0
 40
2.202957
 50
19.796937
 51
26.058266
  0
ARC
  8
FRONTVIEW
 10
136.970321
 20
130.738671
 30
0.0
 40
6.067512
 50
168.549831
 51
171.317764
  0
ARC
  8
FRONTVIEW
 10
133.182715
 20
131.505839
 30
0.0
 40
2.202993
 50
153.941824
 51
168.549851
  0
ARC
  8
FRONTVIEW
 10
131.317755
 20
132.417786
 30
0.0
 40
0.127006
 50
89.999937
 51
153.941826
  0
ARC
  8
FRONTVIEW
 10
126.450373
 20
130.083124
 30
0.0
 40
5.266384
 50
348.549808
 51
352.010674
  0
ARC
  8
FRONTVIEW
 10
129.452796
 20
129.474991
 30
0.0
 40
2.202993
 50
333.941804
 51
348.54983
  0
ARC
  8
FRONTVIEW
 10
131.317755
 20
128.563043
 30
0.0
 40
0.127006
 50
270.00003
 51
333.941919
  0
ARC
  8
FRONTVIEW
 10
131.317755
 20
128.563043
 30
0.0
 40
0.127006
 50
206.058117
 51
270.000006
  0
ARC
  8
FRONTVIEW
 10
133.182714
 20
129.47499
 30
0.0
 40
2.202993
 50
191.450154
 51
206.058181
  0
ARC
  8
FRONTVIEW
 10
136.185419
 20
130.083171
 30
0.0
 40
5.26667
 50
188.358819
 51
191.450083
  0
ARC
  8
FRONTVIEW
 10
126.463531
 20
122.964797
 30
0.0
 40
9.256256
 50
47.178359
 51
48.30991
  0
ARC
  8
FRONTVIEW
 10
130.540069
 20
127.363724
 30
0.0
 40
3.258862
 50
35.590662
 51
47.17836
  0
ARC
  8
FRONTVIEW
 10
133.107459
 20
129.20056
 30
0.0
 40
0.101701
 50
325.888644
 51
35.590677
  0
ARC
  8
FRONTVIEW
 10
135.096498
 20
137.10366
 30
0.0
 40
8.010892
 50
227.178319
 51
228.469064
  0
ARC
  8
FRONTVIEW
 10
131.866451
 20
133.618178
 30
0.0
 40
3.258861
 50
215.590671
 51
227.178369
  0
ARC
  8
FRONTVIEW
 10
129.299062
 20
131.78074
 30
0.0
 40
0.101701
 50
145.888644
 51
215.590677
  0
ARC
  8
FRONTVIEW
 10
129.299062
 20
131.78074
 30
0.0
 40
0.101701
 50
76.186623
 51
145.888656
  0
ARC
  8
FRONTVIEW
 10
128.545259
 20
128.71489
 30
0.0
 40
3.258861
 50
64.598944
 51
76.186642
  0
ARC
  8
FRONTVIEW
 10
126.506999
 20
124.422501
 30
0.0
 40
8.010608
 50
61.707948
 51
64.599024
  0
ARC
  8
FRONTVIEW
 10
133.107459
 20
129.20056
 30
0.0
 40
0.101701
 50
256.186623
 51
325.888656
  0
ARC
  8
FRONTVIEW
 10
133.861262
 20
132.266411
 30
0.0
 40
3.258861
 50
244.598944
 51
256.186642
  0
ARC
  8
FRONTVIEW
 10
135.899679
 20
136.559708
 30
0.0
 40
8.010953
 50
241.807185
 51
244.598955
  0
ARC
  8
FRONTVIEW
 10
129.311812
 20
129.194133
 30
0.0
 40
0.089629
 50
142.874757
 51
214.376124
  0
ARC
  8
FRONTVIEW
 10
132.094742
 20
127.088088
 30
0.0
 40
3.579995
 50
132.266064
 51
142.874701
  0
ARC
  8
FRONTVIEW
 10
135.638199
 20
123.189235
 30
0.0
 40
8.8485
 50
131.136718
 51
132.26603
  0
ARC
  8
FRONTVIEW
 10
125.390658
 20
138.504986
 30
0.0
 40
10.23112
 50
296.485995
 51
298.480172
  0
ARC
  8
FRONTVIEW
 10
128.356921
 20
132.551339
 30
0.0
 40
3.579995
 50
285.877352
 51
296.485989
  0
ARC
  8
FRONTVIEW
 10
129.311812
 20
129.194132
 30
0.0
 40
0.089629
 50
214.375979
 51
285.877346
  0
ARC
  8
FRONTVIEW
 10
136.445509
 20
123.7407
 30
0.0
 40
8.849179
 50
116.486045
 51
119.187413
  0
ARC
  8
FRONTVIEW
 10
134.095557
 20
128.456846
 30
0.0
 40
3.579995
 50
105.877365
 51
116.486002
  0
ARC
  8
FRONTVIEW
 10
133.140665
 20
131.814053
 30
0.0
 40
0.089629
 50
34.376009
 51
105.877376
  0
ARC
  8
FRONTVIEW
 10
133.140665
 20
131.814053
 30
0.0
 40
0.089629
 50
322.87467
 51
34.376037
  0
ARC
  8
FRONTVIEW
 10
130.357735
 20
133.920698
 30
0.0
 40
3.579995
 50
312.266064
 51
322.874701
  0
ARC
  8
FRONTVIEW
 10
126.813579
 20
137.820321
 30
0.0
 40
8.849539
 50
310.789319
 51
312.26603
  0
ARC
  8
FRONTVIEW
 10
128.545991
 20
130.49771
 30
0.0
 40
0.097625
 50
107.770486
 51
179.999953
  0
ARC
  8
FRONTVIEW
 10
129.823918
 20
126.510376
 30
0.0
 40
4.28474
 50
97.562078
 51
107.770471
  0
ARC
  8
FRONTVIEW
 10
130.656368
 20
120.239756
 30
0.0
 40
10.610375
 50
95.609002
 51
97.562053
  0
ARC
  8
FRONTVIEW
 10
130.874915
 20
142.401883
 30
0.0
 40
12.271036
 50
262.437931
 51
264.068511
  0
ARC
  8
FRONTVIEW
 10
129.823918
 20
134.485045
 30
0.0
 40
4.28474
 50
252.229529
 51
262.437922
  0
ARC
  8
FRONTVIEW
 10
128.545991
 20
130.497711
 30
0.0
 40
0.097625
 50
180.000001
 51
252.229468
  0
ARC
  8
FRONTVIEW
 10
131.782857
 20
120.239816
 30
0.0
 40
10.610315
 50
82.437943
 51
84.517235
  0
ARC
  8
FRONTVIEW
 10
132.615301
 20
126.510377
 30
0.0
 40
4.284739
 50
72.229526
 51
82.437919
  0
ARC
  8
FRONTVIEW
 10
133.893227
 20
130.49771
 30
0.0
 40
0.097625
 50
0.000047
 51
72.229514
  0
ARC
  8
FRONTVIEW
 10
133.893227
 20
130.497711
 30
0.0
 40
0.097625
 50
287.770532
 51
359.999999
  0
ARC
  8
FRONTVIEW
 10
132.615301
 20
134.485044
 30
0.0
 40
4.284739
 50
277.562081
 51
287.770474
  0
ARC
  8
FRONTVIEW
 10
131.782865
 20
140.755567
 30
0.0
 40
10.610275
 50
275.603748
 51
277.562045
  0
LINE
  8
FRONTVIEW
 10
131.102292
 20
129.473789
 30
0.0
 11
131.0628
 21
129.309373
 31
0.0
  0
LINE
  8
FRONTVIEW
 10
131.444989
 20
129.62149
 30
0.0
 11
131.385375
 21
129.311825
 31
0.0
  0
LINE
  8
FRONTVIEW
 10
130.669662
 20
129.431623
 30
0.0
 11
130.658731
 21
129.371287
 31
0.0
  0
LINE
  8
FRONTVIEW
 10
131.147504
 20
129.478133
 30
0.0
 11
130.669662
 21
129.432225
 31
0.0
  0
LINE
  8
FRONTVIEW
 10
131.423903
 20
129.609299
 30
0.0
 11
131.147504
 21
129.478133
 31
0.0
  0
LINE
  8
FRONTVIEW
 10
131.714298
 20
129.777191
 30
0.0
 11
131.423903
 21
129.609299
 31
0.0
  0
LINE
  8
FRONTVIEW
 10
131.714298
 20
129.777191
 30
0.0
 11
132.525439
 21
129.777191
 31
0.0
  0
LINE
  8
FRONTVIEW
 10
131.105521
 20
130.477684
 30
0.0
 11
129.559381
 21
130.477684
 31
0.0
  0
LINE
  8
FRONTVIEW
 10
131.071817
 20
130.160602
 30
0.0
 11
129.620644
 21
130.160602
 31
0.0
  0
LINE
  8
FRONTVIEW
 10
130.0138
 20
130.156261
 30
0.0
 11
130.113179
 21
129.804103
 31
0.0
  0
LINE
  8
FRONTVIEW
 10
129.948214
 20
130.477618
 30
0.0
 11
130.0138
 21
130.156261
 31
0.0
  0
LINE
  8
FRONTVIEW
 10
130.026293
 20
130.817338
 30
0.0
 11
129.948214
 21
130.477618
 31
0.0
  0
LINE
  8
FRONTVIEW
 10
130.202751
 20
131.246251
 30
0.0
 11
130.026293
 21
130.817338
 31
0.0
  0
LINE
  8
FRONTVIEW
 10
130.689549
 20
131.607644
 30
0.0
 11
130.202751
 21
131.246251
 31
0.0
  0
LINE
  8
FRONTVIEW
 10
130.413563
 20
130.156261
 30
0.0
 11
130.496327
 21
129.904422
 31
0.0
  0
LINE
  8
FRONTVIEW
 10
130.369839
 20
130.477618
 30
0.0
 11
130.413563
 21
130.156261
 31
0.0
  0
LINE
  8
FRONTVIEW
 10
130.41981
 20
130.817338
 30
0.0
 11
130.369839
 21
130.477618
 31
0.0
  0
LINE
  8
FRONTVIEW
 10
130.513504
 20
131.246251
 30
0.0
 11
130.41981
 21
130.817338
 31
0.0
  0
LINE
  8
FRONTVIEW
 10
130.801912
 20
131.630649
 30
0.0
 11
130.513504
 21
131.246251
 31
0.0
  0
LINE
  8
FRONTVIEW
 10
130.802396
 20
130.477618
 30
0.0
 11
130.856411
 21
130.031688
 31
0.0
  0
LINE
  8
FRONTVIEW
 10
130.877714
 20
131.206623
 30
0.0
 11
130.802396
 21
130.477618
 31
0.0
  0
LINE
  8
FRONTVIEW
 10
131.056935
 20
130.817339
 30
0.0
 11
129.626529
 21
130.817339
 31
0.0
  0
LINE
  8
FRONTVIEW
 10
130.859239
 20
131.247802
 30
0.0
 11
129.947031
 21
131.247802
 31
0.0
  0
LINE
  8
FRONTVIEW
 10
132.057903
 20
130.135275
 30
0.0
 11
132.793732
 21
130.135275
 31
0.0
  0
LINE
  8
FRONTVIEW
 10
131.731533
 20
129.925409
 30
0.0
 11
132.057903
 21
130.135275
 31
0.0
  0
LINE
  8
FRONTVIEW
 10
131.664735
 20
129.350972
 30
0.0
 11
131.731533
 21
129.925409
 31
0.0
  0
LINE
  8
FRONTVIEW
 10
131.656428
 20
130.533771
 30
0.0
 11
132.101113
 21
130.473535
 31
0.0
  0
LINE
  8
FRONTVIEW
 10
131.967331
 20
129.781126
 30
0.0
 11
131.864267
 21
129.399433
 31
0.0
  0
LINE
  8
FRONTVIEW
 10
132.376978
 20
129.789144
 30
0.0
 11
132.298385
 21
129.600117
 31
0.0
  0
LINE
  8
FRONTVIEW
 10
132.470672
 20
130.162967
 30
0.0
 11
132.376978
 21
129.789144
 31
0.0
  0
LINE
  8
FRONTVIEW
 10
132.511273
 20
130.485636
 30
0.0
 11
132.470672
 21
130.162967
 31
0.0
  0
LINE
  8
FRONTVIEW
 10
132.350448
 20
131.228529
 30
0.0
 11
132.29923
 21
131.371052
 31
0.0
  0
LINE
  8
FRONTVIEW
 10
132.350448
 20
131.228529
 30
0.0
 11
132.459228
 21
130.808157
 31
0.0
  0
LINE
  8
FRONTVIEW
 10
132.10475
 20
130.473683
 30
0.0
 11
132.854306
 21
130.473683
 31
0.0
  0
LINE
  8
FRONTVIEW
 10
131.853336
 20
131.234446
 30
0.0
 11
132.481514
 21
131.234446
 31
0.0
  0
LINE
  8
FRONTVIEW
 10
132.079959
 20
130.816078
 30
0.0
 11
132.101113
 21
130.473535
 31
0.0
  0
LINE
  8
FRONTVIEW
 10
131.971179
 20
131.236451
 30
0.0
 11
132.079959
 21
130.816078
 31
0.0
  0
LINE
  8
FRONTVIEW
 10
132.061026
 20
130.15495
 30
0.0
 11
131.967331
 21
129.781126
 31
0.0
  0
LINE
  8
FRONTVIEW
 10
132.101627
 20
130.477618
 30
0.0
 11
132.061026
 21
130.15495
 31
0.0
  0
LINE
  8
FRONTVIEW
 10
132.459228
 20
130.808157
 30
0.0
 11
132.51076
 21
130.481553
 31
0.0
  0
LINE
  8
FRONTVIEW
 10
131.972016
 20
131.234446
 30
0.0
 11
131.826789
 21
131.582036
 31
0.0
  0
LINE
  8
FRONTVIEW
 10
132.790695
 20
130.816199
 30
0.0
 11
131.775258
 21
130.816027
 31
0.0
  0
LINE
  8
FRONTVIEW
 10
131.181697
 20
131.807251
 30
0.0
 11
131.233766
 21
131.374605
 31
0.0
  0
LINE
  8
FRONTVIEW
 10
131.515446
 20
131.964179
 30
0.0
 11
131.561402
 21
131.674108
 31
0.0
  0
LINE
  8
FRONTVIEW
 10
131.393821
 20
131.610434
 30
0.0
 11
131.363315
 21
131.175093
 31
0.0
  0
LINE
  8
FRONTVIEW
 10
131.431853
 20
131.329325
 30
0.0
 11
131.393821
 21
131.610434
 31
0.0
  0
LINE
  8
FRONTVIEW
 10
131.439381
 20
131.674108
 30
0.0
 11
131.431853
 21
131.329325
 31
0.0
  0
LINE
  8
FRONTVIEW
 10
131.484941
 20
131.465635
 30
0.0
 11
131.439381
 21
131.674108
 31
0.0
  0
ARC
  8
FRONTVIEW
 10
132.348745
 20
131.674322
 30
0.0
 40
0.888655
 50
160.56057
 51
193.581845
  0
LINE
  8
FRONTVIEW
 10
131.380351
 20
131.740848
 30
0.0
 11
131.430014
 21
132.494931
 31
0.0
  0
LINE
  8
FRONTVIEW
 10
131.343167
 20
132.450662
 30
0.0
 11
131.380351
 21
131.740848
 31
0.0
  0
LINE
  8
FRONTVIEW
 10
131.305728
 20
131.94036
 30
0.0
 11
131.343167
 21
132.450662
 31
0.0
  0
LINE
  8
FRONTVIEW
 10
131.200289
 20
132.295419
 30
0.0
 11
131.305728
 21
131.94036
 31
0.0
  0
LINE
  8
FRONTVIEW
 10
131.181697
 20
131.807251
 30
0.0
 11
131.200289
 21
132.295419
 31
0.0
  0
LINE
  8
FRONTVIEW
 10
131.156738
 20
132.073469
 30
0.0
 11
131.181697
 21
131.807251
 31
0.0
  0
LINE
  8
FRONTVIEW
 10
131.119554
 20
131.725991
 30
0.0
 11
131.156738
 21
132.073469
 31
0.0
  0
LINE
  8
FRONTVIEW
 10
131.094595
 20
131.984629
 30
0.0
 11
131.119554
 21
131.725991
 31
0.0
  0
LINE
  8
FRONTVIEW
 10
131.029142
 20
131.669594
 30
0.0
 11
131.094595
 21
131.984629
 31
0.0
  0
ARC
  8
FRONTVIEW
 10
132.418476
 20
132.378341
 30
0.0
 40
0.995314
 50
173.273027
 51
204.21668
  0
ARC
  8
FRONTVIEW
 10
131.821313
 20
132.081968
 30
0.0
 40
0.330107
 50
118.145776
 51
199.813636
  0
LINE
  8
FRONTVIEW
 10
130.578096
 20
129.592608
 30
0.0
 11
130.574786
 21
129.662953
 31
0.0
  0
LINE
  8
FRONTVIEW
 10
130.650172
 20
129.498613
 30
0.0
 11
130.610696
 21
129.600188
 31
0.0
  0
LINE
  8
FRONTVIEW
 10
130.545242
 20
129.91492
 30
0.0
 11
129.914608
 21
129.753173
 31
0.0
  0
LINE
  8
FRONTVIEW
 10
131.00189
 20
131.290885
 30
0.0
 11
131.029142
 21
131.669594
 31
0.0
  0
LINE
  8
FRONTVIEW
 10
130.965725
 20
131.583179
 30
0.0
 11
131.00189
 21
131.290885
 31
0.0
  0
LINE
  8
FRONTVIEW
 10
130.920137
 20
131.236914
 30
0.0
 11
130.965725
 21
131.583179
 31
0.0
  0
LINE
  8
FRONTVIEW
 10
130.892886
 20
131.410047
 30
0.0
 11
130.920137
 21
131.236914
 31
0.0
  0
LINE
  8
FRONTVIEW
 10
130.856721
 20
131.236914
 30
0.0
 11
130.892886
 21
131.410047
 31
0.0
  0
ARC
  8
FRONTVIEW
 10
131.992536
 20
132.175626
 30
0.0
 40
0.381919
 50
148.875368
 51
216.031052
  0
ARC
  8
FRONTVIEW
 10
129.767459
 20
130.45958
 30
0.0
 40
1.338185
 50
342.873466
 51
35.512937
  0
ARC
  8
FRONTVIEW
 10
130.419316
 20
131.266422
 30
0.0
 40
1.437784
 50
329.36484
 51
28.431967
  0
LINE
  8
FRONTVIEW
 10
130.811132
 20
130.020437
 30
0.0
 11
130.545242
 21
129.91492
 31
0.0
  0
LINE
  8
FRONTVIEW
 10
130.974639
 20
130.061067
 30
0.0
 11
130.811132
 21
130.020437
 31
0.0
  0
ARC
  8
FRONTVIEW
 10
131.01394
 20
130.00732
 30
0.0
 40
0.066582
 50
295.777135
 51
126.174908
  0
LINE
  8
FRONTVIEW
 10
130.715626
 20
129.866406
 30
0.0
 11
131.042894
 21
129.947363
 31
0.0
  0
ARC
  8
FRONTVIEW
 10
130.959748
 20
130.532076
 30
0.0
 40
0.709022
 50
249.86037
 51
306.718536
  0
LINE
  8
FRONTVIEW
 10
131.329159
 20
130.328801
 30
0.0
 11
131.383661
 21
129.963737
 31
0.0
  0
LINE
  8
FRONTVIEW
 10
131.390538
 20
130.361245
 30
0.0
 11
131.329159
 21
130.328801
 31
0.0
  0
LINE
  8
FRONTVIEW
 10
131.44504
 20
130.336988
 30
0.0
 11
131.390538
 21
130.361245
 31
0.0
  0
LINE
  8
FRONTVIEW
 10
131.492666
 20
130.231471
 30
0.0
 11
131.547169
 21
129.85822
 31
0.0
  0
LINE
  8
FRONTVIEW
 10
131.44504
 20
130.344871
 30
0.0
 11
131.492666
 21
130.231471
 31
0.0
  0
LINE
  8
FRONTVIEW
 10
131.472291
 20
130.377315
 30
0.0
 11
131.44504
 21
130.344871
 31
0.0
  0
LINE
  8
FRONTVIEW
 10
131.519917
 20
130.393688
 30
0.0
 11
131.472291
 21
130.377315
 31
0.0
  0
LINE
  8
FRONTVIEW
 10
131.560922
 20
130.353058
 30
0.0
 11
131.519917
 21
130.393688
 31
0.0
  0
LINE
  8
FRONTVIEW
 10
131.642675
 20
129.95555
 30
0.0
 11
131.560922
 21
130.353058
 31
0.0
  0
LINE
  8
FRONTVIEW
 10
131.628922
 20
130.426131
 30
0.0
 11
131.744803
 21
130.482832
 31
0.0
  0
LINE
  8
FRONTVIEW
 10
131.608547
 20
130.304544
 30
0.0
 11
131.628922
 21
130.426131
 31
0.0
  0
LINE
  8
FRONTVIEW
 10
131.642675
 20
129.95555
 30
0.0
 11
131.608547
 21
130.304544
 31
0.0
  0
LINE
  8
FRONTVIEW
 10
131.806182
 20
130.117767
 30
0.0
 11
131.744803
 21
130.482832
 31
0.0
  0
ARC
  8
FRONTVIEW
 10
131.859993
 20
130.353683
 30
0.0
 40
0.100012
 50
319.077108
 51
161.449207
  0
ARC
  8
FRONTVIEW
 10
130.516105
 20
131.156976
 30
0.0
 40
1.664235
 50
274.559046
 51
328.530496
  0
LINE
  8
FRONTVIEW
 10
130.486644
 20
129.420915
 30
0.0
 11
130.648389
 21
129.498007
 31
0.0
  0
TEXT
  8
FRONTVIEW
 10
134.803399
 20
129.944006
 30
0.0
 40
1.455764
  1
Brooks
  7
ROMANT
  0
TEXT
  8
FRONTVIEW
 10
119.265185
 20
129.930084
 30
0.0
 40
1.455764
  1
Cleaver
  7
ROMANT
  0
TEXT
  8
PLANVIEW
 10
514.363381
 20
276.40235
 30
0.0
 40
5.0
  1
PLAN VIEW
  7
ROMANS
 72
     4
 11
534.601477
 21
278.90235
 31
0.0
  0
SOLID
  8
CAPTIONS
  6
CONTINUOUS
 10
222.512643
 20
412.199294
 30
0.0
 11
221.18494
 21
411.19183
 31
0.0
 12
224.871183
 22
407.712454
 32
0.0
 13
224.871183
 23
407.712454
 33
0.0
  0
LINE
  8
CAPTIONS
  6
CONTINUOUS
 10
224.871183
 20
407.712454
 30
0.0
 11
200.075441
 21
440.389931
 31
0.0
  0
LINE
  8
FRONTVIEW
 10
145.726763
 20
134.898724
 30
0.0
 11
117.173558
 21
134.898724
 31
0.0
  0
LINE
  8
FRONTVIEW
 10
117.173558
 20
134.898724
 30
0.0
 11
117.173558
 21
115.297377
 31
0.0
  0
LINE
  8
FRONTVIEW
 10
117.173558
 20
115.297377
 30
0.0
 11
145.726763
 21
115.297377
 31
0.0
  0
LINE
  8
FRONTVIEW
 10
145.726763
 20
115.297377
 30
0.0
 11
145.726763
 21
134.898724
 31
0.0
  0
CIRCLE
  8
FRONTVIEW
 10
100.875685
 20
121.762201
 30
0.0
 40
48.0
  0
LINE
  8
FRONTVIEW
 10
136.875685
 20
65.04381
 30
0.0
 11
144.095142
 21
97.185852
 31
0.0
  0
CIRCLE
  8
FRONTVIEW
 10
100.875685
 20
121.762201
 30
0.0
 40
49.718391
  0
LINE
  8
RIGHTSIDE
 10
401.362281
 20
172.804775
 30
0.0
 11
394.984627
 21
172.804775
 31
0.0
  0
CIRCLE
  8
FRONTVIEW
 10
100.875685
 20
135.122495
 30
0.0
 40
5.559673
  0
CIRCLE
  8
FRONTVIEW
 10
100.875685
 20
135.122495
 30
0.0
 40
6.917337
  0
LINE
  8
RIGHTSIDE
 10
402.385215
 20
79.804634
 30
0.0
 11
402.385215
 21
169.474249
 31
0.0
  0
ARC
  8
RIGHTSIDE
 10
407.385215
 20
79.804634
 30
0.0
 40
5.0
 50
180.0
 51
270.0
  0
LINE
  8
RIGHTSIDE
 10
445.286919
 20
72.04381
 30
0.0
 11
634.233511
 21
72.04381
 31
0.0
  0
LINE
  8
RIGHTSIDE
 10
643.233511
 20
72.04381
 30
0.0
 11
669.385215
 21
72.04381
 31
0.0
  0
CIRCLE
  8
RIGHTSIDE
 10
655.567504
 20
58.760091
 30
0.0
 40
3.139684
  0
LINE
  8
RIGHTSIDE
 10
413.885215
 20
176.304775
 30
0.0
 11
413.885215
 21
180.055699
 31
0.0
  0
LINE
  8
RIGHTSIDE
 10
437.885215
 20
173.804775
 30
0.0
 11
437.885215
 21
180.055699
 31
0.0
  0
LINE
  8
RIGHTSIDE
 10
412.385215
 20
180.055699
 30
0.0
 11
412.385215
 21
181.04381
 31
0.0
  0
ARC
  8
RIGHTSIDE
 10
425.885215
 20
199.969246
 30
0.0
 40
28.785057
 50
246.452273
 51
294.637952
  0
LINE
  8
RIGHTSIDE
 10
413.885215
 20
53.04381
 30
0.0
 11
413.885215
 21
65.04381
 31
0.0
  0
LINE
  8
RIGHTSIDE
 10
667.885215
 20
53.04381
 30
0.0
 11
667.885215
 21
65.04381
 31
0.0
  0
ARC
  8
PLANVIEW
  6
DASHED
 10
668.819282
 20
357.059086
 30
0.0
 40
52.649311
 50
3.224953
 51
88.763214
  0
LINE
  8
PLANVIEW
  6
DASHED
 10
643.906942
 20
256.425214
 30
0.0
 11
644.632295
 21
255.736823
 31
0.0
  0
LINE
  8
PLANVIEW
  6
DASHED
 10
643.906942
 20
256.425214
 30
0.0
 11
713.467757
 21
329.720983
 31
0.0
  0
LINE
  8
PLANVIEW
  6
DASHED
 10
644.632295
 20
255.736823
 30
0.0
 11
714.193109
 21
329.032592
 31
0.0
  0
LINE
  8
PLANVIEW
  6
DASHED
 10
648.05625
 20
259.344621
 30
0.0
 11
656.760396
 21
251.084015
 31
0.0
  0
LINE
  8
PLANVIEW
  6
DASHED
 10
663.829048
 20
251.268824
 30
0.0
 11
720.013654
 21
310.47017
 31
0.0
  0
LINE
  8
PLANVIEW
  6
DASHED
 10
711.124699
 20
325.799429
 30
0.0
 11
719.828845
 21
317.538823
 31
0.0
  0
ARC
  8
PLANVIEW
  6
DASHED
 10
660.202318
 20
254.710746
 30
0.0
 40
5.0
 50
226.497645
 51
316.497645
  0
ARC
  8
PLANVIEW
  6
DASHED
 10
716.386923
 20
313.912092
 30
0.0
 40
5.0
 50
316.497645
 51
46.497645
  0
LINE
  8
PLANVIEW
  6
DASHED
 10
713.467757
 20
329.720983
 30
0.0
 11
714.193109
 21
329.032592
 31
0.0
  0
LINE
  8
RIGHTSIDE
 10
682.385215
 20
172.804775
 30
0.0
 11
670.699156
 21
172.804775
 31
0.0
  0
LINE
  8
RIGHTSIDE
 10
668.380446
 20
164.063785
 30
0.0
 11
665.13736
 21
164.063785
 31
0.0
  0
ARC
  8
RIGHTSIDE
 10
665.13736
 20
167.063785
 30
0.0
 40
3.0
 50
171.933015
 51
270.0
  0
LINE
  8
RIGHTSIDE
 10
662.167046
 20
167.484778
 30
0.0
 11
663.404301
 21
176.214239
 31
0.0
  0
LINE
  8
RIGHTSIDE
 10
678.088428
 20
172.804775
 30
0.0
 11
678.088428
 21
176.684736
 31
0.0
  0
LINE
  8
RIGHTSIDE
 10
677.150928
 20
176.684736
 30
0.0
 11
677.150928
 21
172.804775
 31
0.0
  0
LINE
  8
RIGHTSIDE
 10
676.963428
 20
176.872236
 30
0.0
 11
678.650928
 21
176.872236
 31
0.0
  0
LINE
  8
RIGHTSIDE
 10
678.650928
 20
176.684736
 30
0.0
 11
676.963428
 21
176.684736
 31
0.0
  0
LINE
  8
RIGHTSIDE
 10
678.650928
 20
176.684736
 30
0.0
 11
678.650928
 21
176.872236
 31
0.0
  0
LINE
  8
RIGHTSIDE
 10
678.297801
 20
180.299554
 30
0.0
 11
678.297801
 21
176.872236
 31
0.0
  0
LINE
  8
RIGHTSIDE
 10
677.150928
 20
180.66881
 30
0.0
 11
677.150928
 21
180.487054
 31
0.0
  0
LINE
  8
RIGHTSIDE
 10
678.088428
 20
180.487054
 30
0.0
 11
678.650928
 21
180.487054
 31
0.0
  0
LINE
  8
RIGHTSIDE
 10
678.650928
 20
180.299554
 30
0.0
 11
676.963428
 21
180.299554
 31
0.0
  0
LINE
  8
RIGHTSIDE
 10
676.963428
 20
180.487054
 30
0.0
 11
678.088428
 21
180.487054
 31
0.0
  0
LINE
  8
RIGHTSIDE
 10
678.088428
 20
180.487054
 30
0.0
 11
678.088428
 21
180.66881
 31
0.0
  0
LINE
  8
RIGHTSIDE
 10
678.650928
 20
180.299554
 30
0.0
 11
678.650928
 21
180.487054
 31
0.0
  0
LINE
  8
RIGHTSIDE
 10
677.150928
 20
180.66881
 30
0.0
 11
677.150928
 21
181.04381
 31
0.0
  0
LINE
  8
RIGHTSIDE
 10
678.088428
 20
180.66881
 30
0.0
 11
678.088428
 21
181.04381
 31
0.0
  0
LINE
  8
RIGHTSIDE
 10
678.088428
 20
181.04381
 30
0.0
 11
677.150928
 21
181.04381
 31
0.0
  0
LINE
  8
RIGHTSIDE
 10
663.432936
 20
168.714239
 30
0.0
 11
668.380446
 21
168.714239
 31
0.0
  0
LINE
  8
RIGHTSIDE
 10
663.432936
 20
168.620489
 30
0.0
 11
668.380446
 21
168.620489
 31
0.0
  0
LINE
  8
RIGHTSIDE
 10
666.166686
 20
168.901739
 30
0.0
 11
666.166686
 21
168.714239
 31
0.0
  0
LINE
  8
RIGHTSIDE
 10
666.166686
 20
168.901739
 30
0.0
 11
666.166686
 21
168.908515
 31
0.0
  0
LINE
  8
RIGHTSIDE
 10
666.166686
 20
175.839239
 30
0.0
 11
666.166686
 21
169.115026
 31
0.0
  0
LINE
  8
RIGHTSIDE
 10
663.807936
 20
176.214239
 30
0.0
 11
663.807936
 21
168.714239
 31
0.0
  0
LINE
  8
RIGHTSIDE
 10
663.901686
 20
176.214239
 30
0.0
 11
663.901686
 21
168.714239
 31
0.0
  0
LINE
  8
RIGHTSIDE
 10
664.666686
 20
175.839239
 30
0.0
 11
664.666686
 21
169.089239
 31
0.0
  0
LINE
  8
RIGHTSIDE
 10
663.432936
 20
168.714239
 30
0.0
 11
663.432936
 21
168.620489
 31
0.0
  0
LINE
  8
RIGHTSIDE
 10
664.666686
 20
168.901739
 30
0.0
 11
664.479186
 21
168.901739
 31
0.0
  0
LINE
  8
RIGHTSIDE
 10
664.479186
 20
168.901739
 30
0.0
 11
664.479186
 21
169.089239
 31
0.0
  0
LINE
  8
RIGHTSIDE
 10
664.479186
 20
169.089239
 30
0.0
 11
665.97171
 21
169.089239
 31
0.0
  0
LINE
  8
RIGHTSIDE
 10
666.066095
 20
168.901739
 30
0.0
 11
664.666686
 21
168.901739
 31
0.0
  0
LINE
  8
RIGHTSIDE
 10
664.666686
 20
168.901739
 30
0.0
 11
664.666686
 21
168.714239
 31
0.0
  0
LINE
  8
RIGHTSIDE
 10
666.166686
 20
176.214239
 30
0.0
 11
666.166686
 21
176.026739
 31
0.0
  0
LINE
  8
RIGHTSIDE
 10
662.654301
 20
176.214239
 30
0.0
 11
662.654301
 21
176.964239
 31
0.0
  0
LINE
  8
RIGHTSIDE
 10
664.666686
 20
176.214239
 30
0.0
 11
664.666686
 21
176.026739
 31
0.0
  0
LINE
  8
RIGHTSIDE
 10
664.479186
 20
176.026739
 30
0.0
 11
664.479186
 21
175.839239
 31
0.0
  0
LINE
  8
RIGHTSIDE
 10
668.113183
 20
176.214239
 30
0.0
 11
662.654301
 21
176.214239
 31
0.0
  0
LINE
  8
RIGHTSIDE
 10
668.113183
 20
176.964239
 30
0.0
 11
668.113183
 21
176.214239
 31
0.0
  0
LINE
  8
RIGHTSIDE
 10
662.654301
 20
176.964239
 30
0.0
 11
668.113183
 21
176.964239
 31
0.0
  0
LINE
  8
RIGHTSIDE
 10
687.385215
 20
80.304775
 30
0.0
 11
687.385215
 21
167.804775
 31
0.0
  0
ARC
  8
RIGHTSIDE
 10
682.385215
 20
167.804775
 30
0.0
 40
5.0
 50
0.0
 51
90.0
  0
ARC
  8
RIGHTSIDE
 10
682.385215
 20
80.304775
 30
0.0
 40
5.0
 50
270.0
 51
0.0
  0
LINE
  8
RIGHTSIDE
 10
663.0628
 20
173.804775
 30
0.0
 11
456.616117
 21
173.804775
 31
0.0
  0
POLYLINE
  8
RIGHTSIDE
 66
     1
 10
0.0
 20
0.0
 30
0.0
 70
     4
 75
     6
  0
VERTEX
  8
RIGHTSIDE
 10
664.479186
 20
176.026739
 30
0.0
 70
    16
  0
VERTEX
  8
RIGHTSIDE
 10
664.479186
 20
176.026739
 30
0.0
 70
     8
  0
VERTEX
  8
RIGHTSIDE
 10
665.528204
 20
176.031908
 30
0.0
 70
     8
  0
VERTEX
  8
RIGHTSIDE
 10
666.381557
 20
176.046752
 30
0.0
 70
     8
  0
VERTEX
  8
RIGHTSIDE
 10
667.066308
 20
176.070276
 30
0.0
 70
     8
  0
VERTEX
  8
RIGHTSIDE
 10
667.60952
 20
176.101484
 30
0.0
 70
     8
  0
VERTEX
  8
RIGHTSIDE
 10
668.038256
 20
176.139382
 30
0.0
 70
     8
  0
VERTEX
  8
RIGHTSIDE
 10
668.379581
 20
176.182973
 30
0.0
 70
     8
  0
VERTEX
  8
RIGHTSIDE
 10
668.660557
 20
176.231264
 30
0.0
 70
     8
  0
VERTEX
  8
RIGHTSIDE
 10
668.908249
 20
176.283258
 30
0.0
 70
     8
  0
VERTEX
  8
RIGHTSIDE
 10
669.157579
 20
176.345332
 30
0.0
 70
     8
  0
VERTEX
  8
RIGHTSIDE
 10
669.474911
 20
176.453346
 30
0.0
 70
     8
  0
VERTEX
  8
RIGHTSIDE
 10
669.934468
 20
176.650528
 30
0.0
 70
     8
  0
VERTEX
  8
RIGHTSIDE
 10
670.610472
 20
176.980111
 30
0.0
 70
     8
  0
VERTEX
  8
RIGHTSIDE
 10
671.577147
 20
177.485324
 30
0.0
 70
     8
  0
VERTEX
  8
RIGHTSIDE
 10
672.908716
 20
178.209399
 30
0.0
 70
     8
  0
VERTEX
  8
RIGHTSIDE
 10
674.679402
 20
179.195565
 30
0.0
 70
     8
  0
VERTEX
  8
RIGHTSIDE
 10
676.963428
 20
180.487054
 30
0.0
 70
     8
  0
VERTEX
  8
RIGHTSIDE
 10
667.561513
 20
176.026739
 30
0.0
 70
    16
  0
VERTEX
  8
RIGHTSIDE
 10
668.974609
 20
176.254367
 30
0.0
 70
    16
  0
VERTEX
  8
RIGHTSIDE
 10
670.122264
 20
176.597561
 30
0.0
 70
    16
  0
VERTEX
  8
RIGHTSIDE
 10
676.963428
 20
180.487054
 30
0.0
 70
    16
  0
SEQEND
  8
RIGHTSIDE
  0
POLYLINE
  8
RIGHTSIDE
 66
     1
 10
0.0
 20
0.0
 30
0.0
 75
     6
  0
VERTEX
  8
RIGHTSIDE
 10
664.479186
 20
175.839239
 30
0.0
  0
VERTEX
  8
RIGHTSIDE
 10
667.591774
 20
175.839239
 30
0.0
 42
0.080329
  0
VERTEX
  8
RIGHTSIDE
 10
669.010006
 20
176.068569
 30
0.0
 42
-0.014116
  0
VERTEX
  8
RIGHTSIDE
 10
670.122264
 20
176.403387
 30
0.0
  0
VERTEX
  8
RIGHTSIDE
 10
676.963428
 20
180.299554
 30
0.0
  0
SEQEND
  8
RIGHTSIDE
  0
POLYLINE
  8
RIGHTSIDE
 66
     1
 10
0.0
 20
0.0
 30
0.0
 75
     6
  0
VERTEX
  8
RIGHTSIDE
 10
665.97171
 20
169.089239
 30
0.0
 42
0.236603
  0
VERTEX
  8
RIGHTSIDE
 10
666.572622
 20
169.390457
 30
0.0
 42
-0.092007
  0
VERTEX
  8
RIGHTSIDE
 10
670.122264
 20
172.669722
 30
0.0
  0
VERTEX
  8
RIGHTSIDE
 10
676.963428
 20
176.872236
 30
0.0
  0
SEQEND
  8
RIGHTSIDE
  0
POLYLINE
  8
RIGHTSIDE
 66
     1
 10
0.0
 20
0.0
 30
0.0
 75
     6
  0
VERTEX
  8
RIGHTSIDE
 10
666.066095
 20
168.901739
 30
0.0
 42
0.238397
  0
VERTEX
  8
RIGHTSIDE
 10
666.670041
 20
169.207048
 30
0.0
 42
-0.091431
  0
VERTEX
  8
RIGHTSIDE
 10
670.122264
 20
172.44746
 30
0.0
  0
VERTEX
  8
RIGHTSIDE
 10
676.963428
 20
176.684736
 30
0.0
  0
SEQEND
  8
RIGHTSIDE
  0
LINE
  8
FRONTVIEW
  6
CONTINUOUS
 10
101.512603
 20
174.879667
 30
0.0
 11
101.512603
 21
171.476512
 31
0.0
  0
LINE
  8
FRONTVIEW
  6
CONTINUOUS
 10
100.238768
 20
174.879667
 30
0.0
 11
100.238768
 21
171.476512
 31
0.0
  0
ARC
  8
FRONTVIEW
 10
105.686665
 20
118.407602
 30
0.0
 40
60.786467
 50
22.864084
 51
91.101413
  0
LINE
  8
FRONTVIEW
 10
153.550192
 20
108.905661
 30
0.0
 11
153.550192
 21
136.672225
 31
0.0
  0
ARC
  8
FRONTVIEW
 10
104.431809
 20
124.203457
 30
0.0
 40
50.676283
 50
14.24374
 51
90.097699
  0
ARC
  8
FRONTVIEW
 10
147.87565
 20
136.197771
 30
0.0
 40
15.0
 50
14.834589
 51
22.864084
  0
LINE
  8
FRONTVIEW
 10
87.375681
 20
180.055699
 30
0.0
 11
87.375681
 21
181.04381
 31
0.0
  0
LINE
  8
FRONTVIEW
 10
112.875681
 20
170.010709
 30
0.0
 11
112.875681
 21
174.171314
 31
0.0
  0
LINE
  8
FRONTVIEW
 10
88.875681
 20
170.010707
 30
0.0
 11
88.875681
 21
180.055699
 31
0.0
  0
LINE
  8
FRONTVIEW
 10
114.375688
 20
181.04381
 30
0.0
 11
114.375688
 21
180.055699
 31
0.0
  0
LINE
  8
FRONTVIEW
 10
114.375688
 20
181.04381
 30
0.0
 11
87.375681
 21
181.04381
 31
0.0
  0
LINE
  8
FRONTVIEW
 10
114.375688
 20
180.055699
 30
0.0
 11
87.375681
 21
180.055699
 31
0.0
  0
LINE
  8
FRONTVIEW
 10
115.129437
 20
173.737753
 30
0.0
 11
116.878428
 21
168.834811
 31
0.0
  0
LINE
  8
FRONTVIEW
 10
112.875681
 20
178.767461
 30
0.0
 11
112.875681
 21
180.055699
 31
0.0
  0
LINE
  8
FRONTVIEW
  6
CENTER
 10
100.875685
 20
186.827521
 30
0.0
 11
100.875685
 21
46.25713
 31
0.0
  0
CIRCLE
  8
PLANVIEW
 10
665.383742
 20
321.589396
 30
0.0
 40
1.692205
  0
ARC
  8
PLANVIEW
 10
665.383742
 20
321.589396
 30
0.0
 40
3.001473
 50
157.740821
 51
340.630729
  0
LINE
  8
PLANVIEW
 10
687.385215
 20
357.616261
 30
0.0
 11
698.802878
 21
357.616261
 31
0.0
  0
LINE
  8
PLANVIEW
 10
698.802878
 20
356.033756
 30
0.0
 11
700.385215
 21
356.033756
 31
0.0
  0
LINE
  8
PLANVIEW
 10
698.802878
 20
361.391151
 30
0.0
 11
700.385215
 21
361.391151
 31
0.0
  0
LINE
  8
PLANVIEW
 10
698.802878
 20
361.391151
 30
0.0
 11
698.802878
 21
356.033756
 31
0.0
  0
LINE
  8
PLANVIEW
 10
700.385215
 20
361.391151
 30
0.0
 11
700.385215
 21
356.033756
 31
0.0
  0
LINE
  8
PLANVIEW
 10
687.385215
 20
359.808645
 30
0.0
 11
698.802878
 21
359.808645
 31
0.0
  0
LINE
  8
PLANVIEW
 10
687.385215
 20
314.712454
 30
0.0
 11
687.385215
 21
402.712454
 31
0.0
  0
LINE
  8
PLANVIEW
 10
682.385215
 20
407.712454
 30
0.0
 11
669.385215
 21
407.712454
 31
0.0
  0
ARC
  8
PLANVIEW
 10
682.385215
 20
402.712454
 30
0.0
 40
5.0
 50
0.0
 51
90.0
  0
ARC
  8
PLANVIEW
 10
682.385215
 20
314.712454
 30
0.0
 40
5.0
 50
270.0
 51
0.0
  0
ARC
  8
PLANVIEW
  6
DASHED
 10
665.383742
 20
321.589396
 30
0.0
 40
39.714956
 50
288.648607
 51
76.424908
  0
LINE
  8
PLANVIEW
 10
677.645057
 20
359.470047
 30
0.0
 11
662.605939
 21
322.726344
 31
0.0
  0
LINE
  8
PLANVIEW
 10
681.382818
 20
358.049143
 30
0.0
 11
668.215334
 21
320.593941
 31
0.0
  0
CIRCLE
  8
PLANVIEW
 10
679.496016
 20
358.712454
 30
0.0
 40
1.229477
  0
LINE
  8
PLANVIEW
 10
667.385215
 20
319.352669
 30
0.0
 11
667.385215
 21
307.712454
 31
0.0
  0
LINE
  8
PLANVIEW
  6
DASHED
 10
692.667905
 20
281.664231
 30
0.0
 11
701.001528
 21
273.859504
 31
0.0
  0
LINE
  8
PLANVIEW
  6
DASHED
 10
703.238205
 20
273.932925
 30
0.0
 11
699.576071
 21
270.022623
 31
0.0
  0
LINE
  8
PLANVIEW
  6
DASHED
 10
702.083275
 20
275.014557
 30
0.0
 11
698.421142
 21
271.104255
 31
0.0
  0
LINE
  8
PLANVIEW
  6
DASHED
 10
702.083275
 20
275.014557
 30
0.0
 11
703.238205
 21
273.932925
 31
0.0
  0
LINE
  8
PLANVIEW
  6
DASHED
 10
698.421142
 20
271.104255
 30
0.0
 11
699.576071
 21
270.022623
 31
0.0
  0
LINE
  8
PLANVIEW
  6
DASHED
 10
691.169266
 20
280.064035
 30
0.0
 11
699.502888
 21
272.259308
 31
0.0
  0
LINE
  8
PLANVIEW
  6
DASHED
 10
691.777021
 20
280.712975
 30
0.0
 11
691.777021
 21
280.712975
 31
0.0
  0
LINE
  8
PLANVIEW
  6
DASHED
 10
691.777021
 20
280.712975
 30
0.0
 11
691.777021
 21
280.712975
 31
0.0
  0
LINE
  8
PLANVIEW
  6
DASHED
 10
691.777021
 20
280.712975
 30
0.0
 11
691.777021
 21
280.712975
 31
0.0
  0
LINE
  8
PLANVIEW
  6
DASHED
 10
691.777021
 20
280.712975
 30
0.0
 11
691.777021
 21
280.712975
 31
0.0
  0
ARC
  8
PLANVIEW
  6
DASHED
 10
411.283937
 20
303.895326
 30
0.0
 40
105.933639
 50
91.483597
 51
178.528859
  0
LINE
  8
PLANVIEW
 10
399.984627
 20
309.712454
 30
0.0
 11
407.267673
 21
309.712454
 31
0.0
  0
LINE
  8
PLANVIEW
 10
412.385215
 20
407.712454
 30
0.0
 11
399.984627
 21
407.712454
 31
0.0
  0
ARC
  8
PLANVIEW
 10
399.984627
 20
314.712454
 30
0.0
 40
5.0
 50
180.0
 51
270.0
  0
ARC
  8
PLANVIEW
 10
399.984627
 20
402.712454
 30
0.0
 40
5.0
 50
90.0
 51
180.0
  0
LINE
  8
PLANVIEW
  6
DASHED
 10
307.385215
 20
302.203614
 30
0.0
 11
307.385215
 21
289.181108
 31
0.0
  0
ARC
  8
PLANVIEW
  6
DASHED
 10
312.385215
 20
289.181108
 30
0.0
 40
5.0
 50
180.0
 51
270.0
  0
LINE
  8
PLANVIEW
  6
DASHED
 10
312.385215
 20
284.181108
 30
0.0
 11
400.385215
 21
284.181108
 31
0.0
  0
LINE
  8
PLANVIEW
  6
DASHED
 10
405.385215
 20
289.181108
 30
0.0
 11
405.385215
 21
302.203614
 31
0.0
  0
ARC
  8
PLANVIEW
  6
DASHED
 10
400.385215
 20
289.181108
 30
0.0
 40
5.0
 50
270.0
 51
0.0
  0
LINE
  8
PLANVIEW
  6
DASHED
 10
364.284668
 20
271.203614
 30
0.0
 11
364.284668
 21
284.181108
 31
0.0
  0
LINE
  8
PLANVIEW
  6
DASHED
 10
364.284668
 20
271.203614
 30
0.0
 11
348.485763
 21
271.203614
 31
0.0
  0
LINE
  8
PLANVIEW
  6
DASHED
 10
348.485763
 20
271.203614
 30
0.0
 11
348.485763
 21
284.181108
 31
0.0
  0
LINE
  8
PLANVIEW
  6
DASHED
 10
407.385215
 20
302.203614
 30
0.0
 11
407.385215
 21
303.203614
 31
0.0
  0
LINE
  8
PLANVIEW
  6
DASHED
 10
392.286026
 20
309.712454
 30
0.0
 11
193.385215
 21
309.712454
 31
0.0
  0
LINE
  8
PLANVIEW
  6
DASHED
 10
392.286026
 20
407.712454
 30
0.0
 11
193.385215
 21
407.712454
 31
0.0
  0
CIRCLE
  8
PLANVIEW
 10
425.885219
 20
358.712454
 30
0.0
 40
13.500004
  0
CIRCLE
  8
PLANVIEW
 10
425.885219
 20
358.712454
 30
0.0
 40
11.957533
  0
LINE
  8
PLANVIEW
 10
682.385215
 20
309.712454
 30
0.0
 11
669.385215
 21
309.712454
 31
0.0
  0
ARC
  8
RIGHTSIDE
  6
CONTINUOUS
 10
457.677813
 20
145.632538
 30
0.0
 40
0.5
 50
270.0
 51
0.098101
  0
ARC
  8
RIGHTSIDE
  6
CONTINUOUS
 10
453.41938
 20
145.632538
 30
0.0
 40
0.5
 50
180.098875
 51
270.0
  0
ARC
  8
RIGHTSIDE
  6
CONTINUOUS
 10
457.677813
 20
165.948492
 30
0.0
 40
0.5
 50
359.901898
 51
90.0
  0
ARC
  8
RIGHTSIDE
  6
CONTINUOUS
 10
453.41938
 20
165.948492
 30
0.0
 40
0.5
 50
90.0
 51
179.901125
  0
ARC
  8
RIGHTSIDE
 10
459.685225
 20
151.974734
 30
0.0
 40
1.0
 50
103.221472
 51
179.869697
  0
LINE
  8
RIGHTSIDE
  6
CONTINUOUS
 10
453.440385
 20
165.27637
 30
0.0
 11
457.674916
 21
165.27637
 31
0.0
  0
LINE
  8
RIGHTSIDE
  6
CONTINUOUS
 10
453.41938
 20
145.132538
 30
0.0
 11
457.677813
 21
145.132538
 31
0.0
  0
LINE
  8
RIGHTSIDE
  6
CONTINUOUS
 10
453.41938
 20
166.448492
 30
0.0
 11
457.677813
 21
166.448492
 31
0.0
  0
ARC
  8
RIGHTSIDE
  6
CONTINUOUS
 10
455.54945
 20
177.313431
 30
0.0
 40
1.525326
 50
314.37119
 51
225.62881
  0
LINE
  8
RIGHTSIDE
  6
CONTINUOUS
 10
454.482784
 20
145.134283
 30
0.0
 11
454.482784
 21
123.772969
 31
0.0
  0
LINE
  8
RIGHTSIDE
  6
CONTINUOUS
 10
456.616117
 20
145.132538
 30
0.0
 11
456.616117
 21
123.772969
 31
0.0
  0
ARC
  8
RIGHTSIDE
  6
CONTINUOUS
 10
455.54945
 20
177.313431
 30
0.0
 40
1.066706
 50
359.509422
 51
180.490578
  0
LINE
  8
RIGHTSIDE
  6
CONTINUOUS
 10
464.670059
 20
162.816203
 30
0.0
 11
464.670059
 21
162.316204
 31
0.0
  0
LINE
  8
RIGHTSIDE
  6
CONTINUOUS
 10
467.294807
 20
163.275957
 30
0.0
 11
467.294807
 21
162.816203
 31
0.0
  0
LINE
  8
RIGHTSIDE
  6
CONTINUOUS
 10
474.447456
 20
163.275957
 30
0.0
 11
474.447456
 21
162.316204
 31
0.0
  0
LINE
  8
RIGHTSIDE
  6
CONTINUOUS
 10
464.670059
 20
162.316204
 30
0.0
 11
474.447456
 21
162.316204
 31
0.0
  0
LINE
  8
RIGHTSIDE
  6
CONTINUOUS
 10
474.447456
 20
163.275957
 30
0.0
 11
467.294807
 21
163.275957
 31
0.0
  0
LINE
  8
RIGHTSIDE
  6
CONTINUOUS
 10
464.670059
 20
162.816203
 30
0.0
 11
474.446178
 21
162.816203
 31
0.0
  0
ARC
  8
RIGHTSIDE
 10
467.140714
 20
162.320693
 30
0.0
 40
2.433514
 50
269.840645
 51
310.249008
  0
ARC
  8
RIGHTSIDE
  6
CONTINUOUS
 10
455.54945
 20
123.772222
 30
0.0
 40
2.026873
 50
121.753237
 51
58.246763
  0
ARC
  8
RIGHTSIDE
  6
CONTINUOUS
 10
455.54945
 20
123.772222
 30
0.0
 40
1.066706
 50
179.509422
 51
0.490578
  0
LINE
  8
RIGHTSIDE
  6
CONTINUOUS
 10
456.616117
 20
177.322564
 30
0.0
 11
456.616117
 21
166.448492
 31
0.0
  0
LINE
  8
RIGHTSIDE
  6
CONTINUOUS
 10
454.482784
 20
177.322564
 30
0.0
 11
454.482784
 21
166.448492
 31
0.0
  0
LINE
  8
RIGHTSIDE
 10
452.437607
 20
164.279157
 30
0.0
 11
452.39317
 21
147.301875
 31
0.0
  0
LINE
  8
RIGHTSIDE
 10
459.708692
 20
159.889653
 30
0.0
 11
467.133946
 21
159.887188
 31
0.0
  0
LINE
  8
RIGHTSIDE
 10
453.390385
 20
146.299098
 30
0.0
 11
457.671798
 21
146.295944
 31
0.0
  0
ARC
  8
RIGHTSIDE
 10
468.982185
 20
162.135794
 30
0.0
 40
4.425234
 50
292.72343
 51
2.168935
  0
ARC
  8
RIGHTSIDE
 10
467.140714
 20
162.320693
 30
0.0
 40
2.433514
 50
321.783307
 51
359.840645
  0
LINE
  8
RIGHTSIDE
 10
468.45195
 20
160.899728
 30
0.0
 11
470.645107
 21
157.233886
 31
0.0
  0
LINE
  8
RIGHTSIDE
 10
468.773649
 20
161.285316
 30
0.0
 11
470.923925
 21
157.662595
 31
0.0
  0
ARC
  8
RIGHTSIDE
 10
468.699749
 20
158.804102
 30
0.0
 40
2.499999
 50
321.090906
 51
332.831874
  0
ARC
  8
RIGHTSIDE
 10
467.140714
 20
162.320693
 30
0.0
 40
1.933515
 50
312.70015
 51
327.622896
  0
ARC
  8
RIGHTSIDE
 10
453.437604
 20
164.276375
 30
0.0
 40
1.0
 50
89.840645
 51
179.840645
  0
ARC
  8
RIGHTSIDE
 10
453.393166
 20
147.299094
 30
0.0
 40
1.0
 50
179.840645
 51
269.840645
  0
ARC
  8
RIGHTSIDE
 10
457.674579
 20
147.29594
 30
0.0
 40
1.0
 50
269.840645
 51
359.840645
  0
LINE
  8
RIGHTSIDE
 10
458.674575
 20
147.293159
 30
0.0
 11
458.685227
 21
151.977008
 31
0.0
  0
ARC
  8
RIGHTSIDE
 10
457.668877
 20
164.226388
 30
0.0
 40
1.05
 50
359.840645
 51
89.670485
  0
ARC
  8
RIGHTSIDE
 10
452.333195
 20
183.26752
 30
0.0
 40
31.144841
 50
283.221472
 51
305.215451
  0
LINE
  8
RIGHTSIDE
 10
458.177812
 20
165.947636
 30
0.0
 11
458.176433
 21
165.142537
 31
0.0
  0
LINE
  8
RIGHTSIDE
 10
452.91938
 20
165.949355
 30
0.0
 11
452.917968
 21
165.130762
 31
0.0
  0
LINE
  8
RIGHTSIDE
 10
458.709617
 20
160.892433
 30
0.0
 11
458.718873
 21
164.22044
 31
0.0
  0
ARC
  8
RIGHTSIDE
 10
459.709613
 20
160.889652
 30
0.0
 40
1.0
 50
179.840645
 51
269.947215
  0
LINE
  8
RIGHTSIDE
 10
452.91938
 20
145.631676
 30
0.0
 11
452.918021
 21
146.419186
 31
0.0
  0
LINE
  8
RIGHTSIDE
 10
458.177812
 20
145.633394
 30
0.0
 11
458.176446
 21
146.430995
 31
0.0
  0
ARC
  8
PLANVIEW
  6
CONTINUOUS
 10
455.795308
 20
358.712454
 30
0.0
 40
2.205666
 50
298.920975
 51
241.079025
  0
ARC
  8
PLANVIEW
  6
CONTINUOUS
 10
455.795308
 20
358.712454
 30
0.0
 40
1.067984
 50
357.153517
 51
182.846483
  0
LINE
  8
PLANVIEW
 10
456.861974
 20
306.075508
 30
0.0
 11
456.861974
 21
358.737495
 31
0.0
  0
LINE
  8
PLANVIEW
 10
454.728641
 20
306.075508
 30
0.0
 11
454.728641
 21
358.737495
 31
0.0
  0
LINE
  8
FRONTVIEW
  6
CONTINUOUS
 10
157.023052
 20
90.653471
 30
0.0
 11
149.023052
 21
90.653471
 31
0.0
  0
LINE
  8
FRONTVIEW
  6
CONTINUOUS
 10
149.023052
 20
106.782665
 30
0.0
 11
149.023052
 21
90.653471
 31
0.0
  0
LINE
  8
FRONTVIEW
  6
CONTINUOUS
 10
157.870151
 20
162.195349
 30
0.0
 11
148.339586
 21
162.195349
 31
0.0
  0
LINE
  8
FRONTVIEW
  6
CONTINUOUS
 10
157.870151
 20
166.074339
 30
0.0
 11
148.339586
 21
166.074339
 31
0.0
  0
POLYLINE
  8
FRONTVIEW
  6
CONTINUOUS
 66
     1
 10
0.0
 20
0.0
 30
0.0
  0
VERTEX
  8
FRONTVIEW
  6
CONTINUOUS
 10
150.247185
 20
159.751944
 30
0.0
 42
-0.061908
 70
     2
 50
111.516441
  0
VERTEX
  8
FRONTVIEW
  6
CONTINUOUS
 10
151.567422
 20
161.536159
 30
0.0
 42
-0.205339
  0
VERTEX
  8
FRONTVIEW
  6
CONTINUOUS
 10
153.104868
 20
162.195349
 30
0.0
 42
-0.205339
  0
SEQEND
  8
FRONTVIEW
  6
CONTINUOUS
  0
ARC
  8
FRONTVIEW
  6
CONTINUOUS
 10
148.339586
 20
165.164339
 30
0.0
 40
0.91
 50
90.0
 51
180.0
  0
LINE
  8
FRONTVIEW
 10
152.221736
 20
166.074339
 30
0.0
 11
152.221736
 21
174.995635
 31
0.0
  0
LINE
  8
FRONTVIEW
 10
155.366192
 20
177.587378
 30
0.0
 11
150.843544
 21
177.587378
 31
0.0
  0
ARC
  8
FRONTVIEW
 10
151.422913
 20
175.324076
 30
0.0
 40
0.666667
 50
0.0
 51
90.0
  0
LINE
  8
FRONTVIEW
 10
152.08958
 20
174.995635
 30
0.0
 11
154.120157
 21
174.995635
 31
0.0
  0
LINE
  8
FRONTVIEW
 10
152.08958
 20
175.324076
 30
0.0
 11
152.08958
 21
174.995635
 31
0.0
  0
LINE
  8
FRONTVIEW
 10
151.422913
 20
175.990743
 30
0.0
 11
150.843544
 21
175.990743
 31
0.0
  0
LINE
  8
FRONTVIEW
 10
150.843544
 20
175.990743
 30
0.0
 11
150.843544
 21
177.587378
 31
0.0
  0
LINE
  8
FRONTVIEW
  6
CENTER
 10
147.429586
 20
163.105349
 30
0.0
 11
147.429586
 21
165.164339
 31
0.0
  0
LINE
  8
FRONTVIEW
  6
CONTINUOUS
 10
160.576064
 20
152.777092
 30
0.0
 11
161.442556
 21
152.777092
 31
0.0
  0
LINE
  8
FRONTVIEW
  6
CONTINUOUS
 10
160.576064
 20
153.23398
 30
0.0
 11
161.442556
 21
153.23398
 31
0.0
  0
LINE
  8
FRONTVIEW
  6
CONTINUOUS
 10
162.3646
 20
154.752457
 30
0.0
 11
161.442556
 21
154.156448
 31
0.0
  0
LINE
  8
FRONTVIEW
  6
CONTINUOUS
 10
162.3646
 20
151.155855
 30
0.0
 11
162.3646
 21
154.752457
 31
0.0
  0
LINE
  8
FRONTVIEW
  6
CONTINUOUS
 10
161.442556
 20
151.936831
 30
0.0
 11
162.3646
 21
151.155855
 31
0.0
  0
LINE
  8
FRONTVIEW
  6
CONTINUOUS
 10
161.442556
 20
154.156448
 30
0.0
 11
161.442556
 21
151.936831
 31
0.0
  0
LINE
  8
FRONTVIEW
  6
CONTINUOUS
 10
161.442556
 20
144.887492
 30
0.0
 11
161.442556
 21
147.107109
 31
0.0
  0
LINE
  8
FRONTVIEW
  6
CONTINUOUS
 10
161.442556
 20
147.107109
 30
0.0
 11
162.3646
 21
147.888086
 31
0.0
  0
LINE
  8
FRONTVIEW
  6
CONTINUOUS
 10
162.3646
 20
147.888086
 30
0.0
 11
162.3646
 21
144.291484
 31
0.0
  0
LINE
  8
FRONTVIEW
  6
CONTINUOUS
 10
162.3646
 20
144.291484
 30
0.0
 11
161.442556
 21
144.887492
 31
0.0
  0
LINE
  8
FRONTVIEW
  6
CONTINUOUS
 10
160.576064
 20
145.809961
 30
0.0
 11
161.442556
 21
145.809961
 31
0.0
  0
LINE
  8
FRONTVIEW
  6
CONTINUOUS
 10
160.576064
 20
146.266849
 30
0.0
 11
161.442556
 21
146.266849
 31
0.0
  0
LINE
  8
FRONTVIEW
  6
CONTINUOUS
 10
157.376225
 20
155.656745
 30
0.0
 11
158.917729
 21
155.656745
 31
0.0
  0
LINE
  8
FRONTVIEW
  6
CONTINUOUS
 10
160.597658
 20
158.287402
 30
0.0
 11
158.917729
 21
158.287402
 31
0.0
  0
ARC
  8
FRONTVIEW
  6
CONTINUOUS
 10
157.870151
 20
163.105349
 30
0.0
 40
0.91
 50
270.0
 51
0.0
  0
ARC
  8
FRONTVIEW
  6
CONTINUOUS
 10
157.870151
 20
165.164339
 30
0.0
 40
0.91
 50
0.0
 51
90.0
  0
LINE
  8
FRONTVIEW
  6
CENTER
 10
158.780151
 20
163.105349
 30
0.0
 11
158.780151
 21
165.164339
 31
0.0
  0
LINE
  8
FRONTVIEW
  6
CONTINUOUS
 10
160.597658
 20
144.480142
 30
0.0
 11
160.597658
 21
158.287402
 31
0.0
  0
LINE
  8
FRONTVIEW
  6
CONTINUOUS
 10
158.917729
 20
158.287402
 30
0.0
 11
158.917729
 21
147.758042
 31
0.0
  0
LINE
  8
FRONTVIEW
 10
153.942575
 20
166.074339
 30
0.0
 11
153.942575
 21
174.995635
 31
0.0
  0
LINE
  8
FRONTVIEW
 10
155.366192
 20
175.990743
 30
0.0
 11
155.366192
 21
177.587378
 31
0.0
  0
LINE
  8
FRONTVIEW
 10
154.786823
 20
175.990743
 30
0.0
 11
155.366192
 21
175.990743
 31
0.0
  0
ARC
  8
FRONTVIEW
 10
154.786823
 20
175.324076
 30
0.0
 40
0.666667
 50
90.0
 51
180.0
  0
LINE
  8
FRONTVIEW
 10
154.120157
 20
174.995635
 30
0.0
 11
154.120157
 21
175.324076
 31
0.0
  0
LINE
  8
FRONTVIEW
  6
CONTINUOUS
 10
158.917729
 20
154.629145
 30
0.0
 11
157.554767
 21
154.629145
 31
0.0
  0
LINE
  8
FRONTVIEW
 10
120.850814
 20
177.272219
 30
0.0
 11
150.843544
 21
177.272219
 31
0.0
  0
LINE
  8
FRONTVIEW
 10
124.271183
 20
176.283419
 30
0.0
 11
150.843544
 21
176.283419
 31
0.0
  0
LINE
  8
PLANVIEW
 10
472.981664
 20
307.712454
 30
0.0
 11
669.385215
 21
307.712454
 31
0.0
  0
LINE
  8
RIGHTSIDE
 10
454.482784
 20
173.804775
 30
0.0
 11
437.885215
 21
173.804775
 31
0.0
  0
LINE
  8
FRONTVIEW
  6
CONTINUOUS
 10
157.023052
 20
106.782665
 30
0.0
 11
157.023052
 21
90.653471
 31
0.0
  0
ARC
  8
FRONTVIEW
  6
CONTINUOUS
 10
148.339586
 20
163.105349
 30
0.0
 40
0.91
 50
180.0
 51
270.0
  0
POLYLINE
  8
FRONTVIEW
  6
CONTINUOUS
 66
     1
 10
0.0
 20
0.0
 30
0.0
  0
VERTEX
  8
FRONTVIEW
  6
CONTINUOUS
 10
157.895868
 20
149.539477
 30
0.0
 42
0.004007
 50
68.483559
  0
VERTEX
  8
FRONTVIEW
  6
CONTINUOUS
 10
157.899823
 20
150.032884
 30
0.0
 42
0.04049
  0
VERTEX
  8
FRONTVIEW
  6
CONTINUOUS
 10
157.497389
 20
154.994278
 30
0.0
 42
0.053466
  0
VERTEX
  8
FRONTVIEW
  6
CONTINUOUS
 10
156.495413
 20
158.633046
 30
0.0
 42
0.09659
 70
     2
 50
111.516441
  0
VERTEX
  8
FRONTVIEW
  6
CONTINUOUS
 10
154.642315
 20
161.536159
 30
0.0
 42
0.205339
 50
111.516441
  0
VERTEX
  8
FRONTVIEW
  6
CONTINUOUS
 10
153.104868
 20
162.195349
 30
0.0
 42
0.205339
  0
SEQEND
  8
FRONTVIEW
  6
CONTINUOUS
  0
LINE
  8
FRONTVIEW
 10
153.550192
 20
122.711445
 30
0.0
 11
150.585013
 21
122.711445
 31
0.0
  0
LINE
  8
FRONTVIEW
 10
153.550192
 20
124.833
 30
0.0
 11
150.499153
 21
124.833
 31
0.0
  0
LINE
  8
FRONTVIEW
  6
CENTER
 10
171.927178
 20
123.804775
 30
0.0
 11
47.26944
 21
123.804775
 31
0.0
  0
LINE
  8
FRONTVIEW
 10
164.648688
 20
53.04381
 30
0.0
 11
140.483479
 21
53.04381
 31
0.0
  0
LINE
  8
PLANVIEW
  6
DASHED
 10
721.385215
 20
320.137048
 30
0.0
 11
721.385215
 21
360.020943
 31
0.0
  0
LINE
  8
CAPTIONS
  6
DASHED
 10
514.435194
 20
249.712454
 30
0.0
 11
644.633362
 21
249.712454
 31
0.0
  0
TEXT
  8
CAPTIONS
  6
CONTINUOUS
 10
514.629622
 20
251.270741
 30
0.0
 40
5.0
  1
Rear door clearance at side
  7
ROMANS
  0
LINE
  8
PLANVIEW
 10
419.734375
 20
297.212454
 30
0.0
 11
449.704236
 21
297.212454
 31
0.0
  0
LINE
  8
PLANVIEW
 10
419.734375
 20
305.212454
 30
0.0
 11
449.704236
 21
305.212454
 31
0.0
  0
LINE
  8
PLANVIEW
 10
419.734375
 20
297.212454
 30
0.0
 11
419.734375
 21
305.212454
 31
0.0
  0
LINE
  8
PLANVIEW
 10
449.704236
 20
297.212454
 30
0.0
 11
449.704236
 21
305.212454
 31
0.0
  0
LINE
  8
PLANVIEW
 10
459.927184
 20
300.421673
 30
0.0
 11
472.981664
 21
300.421673
 31
0.0
  0
ARC
  8
PLANVIEW
  6
CONTINUOUS
 10
455.795308
 20
306.094533
 30
0.0
 40
1.066836
 50
181.021808
 51
358.978192
  0
LINE
  8
PLANVIEW
 10
458.085661
 20
297.212454
 30
0.0
 11
453.916566
 21
297.212454
 31
0.0
  0
ARC
  8
PLANVIEW
 10
456.672019
 20
306.109173
 30
0.0
 40
5.352655
 50
179.861012
 51
287.333155
  0
LINE
  8
PLANVIEW
 10
458.266721
 20
300.999589
 30
0.0
 11
459.927184
 21
300.421673
 31
0.0
  0
LINE
  8
PLANVIEW
 10
455.411544
 20
297.752788
 30
0.0
 11
455.411544
 21
298.453467
 31
0.0
  0
LINE
  8
PLANVIEW
 10
456.590683
 20
300.757135
 30
0.0
 11
456.590683
 21
300.424101
 31
0.0
  0
LINE
  8
PLANVIEW
 10
458.085661
 20
297.752788
 30
0.0
 11
453.916566
 21
297.752788
 31
0.0
  0
LINE
  8
PLANVIEW
 10
458.085661
 20
297.752788
 30
0.0
 11
458.085661
 21
297.212454
 31
0.0
  0
LINE
  8
PLANVIEW
 10
453.916566
 20
297.752788
 30
0.0
 11
453.916566
 21
297.212454
 31
0.0
  0
LINE
  8
PLANVIEW
  6
CONTINUOUS
 10
455.015796
 20
298.453467
 30
0.0
 11
456.986431
 21
298.453467
 31
0.0
  0
LINE
  8
PLANVIEW
  6
CONTINUOUS
 10
456.986431
 20
298.453467
 30
0.0
 11
456.986431
 21
300.424101
 31
0.0
  0
LINE
  8
PLANVIEW
  6
CONTINUOUS
 10
456.986431
 20
300.424101
 30
0.0
 11
455.015796
 21
300.424101
 31
0.0
  0
LINE
  8
PLANVIEW
  6
CONTINUOUS
 10
455.015796
 20
300.424101
 30
0.0
 11
455.015796
 21
298.453467
 31
0.0
  0
LINE
  8
PLANVIEW
 10
456.590683
 20
298.453467
 30
0.0
 11
456.590683
 21
297.752788
 31
0.0
  0
LINE
  8
PLANVIEW
 10
455.411544
 20
300.424101
 30
0.0
 11
455.411544
 21
300.907046
 31
0.0
  0
LINE
  8
PLANVIEW
 10
459.927184
 20
311.796673
 30
0.0
 11
472.981664
 21
311.796673
 31
0.0
  0
LINE
  8
PLANVIEW
 10
472.981664
 20
311.796673
 30
0.0
 11
472.981664
 21
300.421673
 31
0.0
  0
ARC
  8
PLANVIEW
 10
455.842801
 20
306.105794
 30
0.0
 40
2.298745
 50
118.991636
 51
63.681507
  0
ARC
  8
PLANVIEW
  6
CONTINUOUS
 10
456.672019
 20
306.109173
 30
0.0
 40
5.352655
 50
72.666845
 51
87.966257
  0
LINE
  8
PLANVIEW
  6
CONTINUOUS
 10
458.266721
 20
311.218756
 30
0.0
 11
459.927184
 21
311.796673
 31
0.0
  0
ARC
  8
PLANVIEW
  6
CONTINUOUS
 10
456.672019
 20
306.109173
 30
0.0
 40
5.352655
 50
111.288727
 51
179.861012
  0
ARC
  8
RIGHTSIDE
 10
404.362281
 20
172.906993
 30
0.0
 40
3.0
 50
180.0
 51
199.975255
  0
ARC
  8
RIGHTSIDE
 10
408.109782
 20
172.843063
 30
0.0
 40
3.0
 50
180.0
 51
201.680608
  0
ENDSEC
  0
EOF
